» » »

Funeral For A Friend, Beneath The Burning Tree Bass tabs (ver.1)

Artists:  A B C D E F G H I J K L M N O P Q R S T U V W X Y Z # 

Beneath The Burning Tree Bass tabs (ver.1)

Funeral For A Friend Tabs
 Rating:
4/5 (6 votes)
Beneath The Burning Tree lessons Tabs too difficult? Try these video lessons and learn fast
                F#||-------|-------|-------|-------|---------------------------|
C#||-------|-------|-------|-------|---------------------------|
G#||-------|-------|-------|-------|---------------------------|
C#||-------|-------|-------|-------|--7-7-7-7---5--L--L--2--L--|

  
----------------------------------|----------------------------------|
----------------------------------|----------------------------------|
----------------------------------|----------------------------------|
--5-5-5-5-----5-5-5-5-5-5-2-2-2-2-|--5-5-5-5-----5-5-5-5-5-5-2-2-2-2-|

  
----------------------------------|----------------------------------|
----------------------------------|----------------------------------|
----------------------------------|----------------------------------|
--5-5-5-5-----5-5-5-5-5-5-2-2-2-2-|--7-7-7-7-7-7-5-5-5-5-5-5-2-2-2-2-|


----------------------------------|----------------------------------|
----------------------------------|----------------------------------|
----------------------------------|----------------------------------|
--5-5-5-5-----5-5-5-5-5-5-2-2-2-2-|--5-5-5-5-----5-5-5-5-5-5-2-2-2-2-|


----------------------------------|----------------------------------|
----------------------------------|----------------------------------|
----------------------------------|----------------------------------|
--5-5-5-5-----5-5-5-5-5-5-2-2-2-2-|--7-7-7-7-7-7-5-5-5-5-5-5-2-2-2-2-|

  
----------------------------------|----------------------------------|
----------------------------------|----------------------------------|
----------------------------------|----------------------------------|
--2-2-2-2-2-2-2-2-2-2-2-2-2-2-2-2-|--9-9-9-9-9-9-9-9-9-9-9-9-9-9-9-9-|


----------------------------------|----------------------------------|
----------------------------------|----------------------------------|
--3-3-3-3-3-3-3-3-3-3-3-3-3-3-3-3-|----------------------------------|
----------------------------------|--0-0-0-0-0-0-0-0-0-0-0-0-0-0-0-0-|


----------------------------------|----------------------------------|
----------------------------------|----------------------------------|
----------------------------------|----------------------------------|
--2-2-2-2-2-2-2-2-2-2-2-2-2-2-2-2-|--9-9-9-9-9-9-9-9-9-9-9-9-9-9-9-9-|

          
----------------------------------|----------------------------------|-------|
----------------------------------|----------------------------------|-------|
--3-3-3-3-3-3-3-3-3-3-3-3-3-3-3-3-|----------------------------------|-------|
----------------------------------|--0-0-0-0-0-0-0-0-0-0-0-0-0-0-0-0-|-------|

  
-------|-------|---------------------------|----------------------------------|
-------|-------|---------------------------|----------------------------------|
-------|-------|---------------------------|----------------------------------|
-------|-------|--7-7-7-7---5--L--L--2--L--|--5-5-5-5-----5-5-5-5-5-5-2-2-2-2-|




----------------------------------|----------------------------------|
----------------------------------|----------------------------------|
----------------------------------|----------------------------------|
--5-5-5-5-----5-5-5-5-5-5-2-2-2-2-|--5-5-5-5-----5-5-5-5-5-5-2-2-2-2-|


----------------------------------|----------------------------------|
----------------------------------|----------------------------------|
----------------------------------|----------------------------------|
--7-7-7-7-7-7-5-5-5-5-5-5-2-2-2-2-|--5-5-5-5-----5-5-5-5-5-5-2-2-2-2-|

  
----------------------------------|----------------------------------|
----------------------------------|----------------------------------|
----------------------------------|----------------------------------|
--5-5-5-5-----5-5-5-5-5-5-2-2-2-2-|--5-5-5-5-----5-5-5-5-5-5-2-2-2-2-|


----------------------------------|----------------------------------|
----------------------------------|----------------------------------|
----------------------------------|----------------------------------|
--7-7-7-7-7-7-5-5-5-5-5-5-2-2-2-2-|--2-2-2-2-2-2-2-2-2-2-2-2-2-2-2-2-|

  
----------------------------------|----------------------------------|
----------------------------------|----------------------------------|
----------------------------------|--3-3-3-3-3-3-3-3-3-3-3-3-3-3-3-3-|
--9-9-9-9-9-9-9-9-9-9-9-9-9-9-9-9-|----------------------------------|

  
----------------------------------|----------------------------------|
----------------------------------|----------------------------------|
----------------------------------|----------------------------------|
--0-0-0-0-0-0-0-0-0-0-0-0-0-0-0-0-|--2-2-2-2-2-2-2-2-2-2-2-2-2-2-2-2-|


----------------------------------|----------------------------------|
----------------------------------|----------------------------------|
----------------------------------|--3-3-3-3-3-3-3-3-3-3-3-3-3-3-3-3-|
--9-9-9-9-9-9-9-9-9-9-9-9-9-9-9-9-|----------------------------------|


----------------------------------|----------------------|
----------------------------------|----------------------|
----------------------------------|-------2--2-3--3-0--0-|
--0-0-0-0-0-0-0-0-0-0-0-0-0-0-0-0-|--2--2----------------|

  
----------------------|--------------------------|--------------------------|
----------------------|--------------------------|--------------------------|
-------2--2-3--3-0--0-|--------------------------|--------------------------|
--2--2----------------|--5-5-5-5-5-5-5-5-5-5-5-5-|--0-0-0-0-0-0-0-0-0-0-0-0-|


--------------------------------|--------------------------|
--------------------------------|--------------------------|
--------------------------------|--------------------------|
--9-9-9-9-9-9-10-10-10-10-10-10-|--5-5-5-5-5-5-5-5-5-5-5-5-|





--------------------------|--------------------------|
--------------------------|--------------------------|
--------------------------|--------------------------|
--0-0-0-0-0-0-0-0-0-0-0-0-|--2-2-2-2-2-2-2-2-2-2-2-2-|



--------------------------------|--------------------------|
--------------------------------|--------------------------|
--------------------------------|--------------------------|
--9-9-9-9-9-9-10-10-10-10-10-10-|--5-5-5-5-5-5-5-5-5-5-5-5-|

  
--------------------------|--------------------------------|
--------------------------|--------------------------------|
--------------------------|--------------------------------|
--0-0-0-0-0-0-0-0-0-0-0-0-|--9-9-9-9-9-9-10-10-10-10-10-10-|

  
--------------------------|--------------------------|
--------------------------|--------------------------|
--------------------------|--------------------------|
--5-5-5-5-5-5-5-5-5-5-5-5-|--0-0-0-0-0-0-0-0-0-0-0-0-|


--------------------------|--------------------------------|
--------------------------|--------------------------------|
--------------------------|--------------------------------|
--2-2-2-2-2-2-2-2-2-2-2-2-|--9-9-9-9-9-9-10-10-10-10-10-10-|


----------------------|----------------------|----------------------|
----------------------|----------------------|----------------------|
-------2--2-3--3-0--0-|-------2--2-3--3-0--0-|-------2--2-3--3-0--0-|
--2--2----------------|--2--2----------------|--2--2----------------|

   
----------------------|---------------|--------------------|
----------------------|---------------|--------------------|
-------2--2-3--3-0--0-|---------------|--------------------|
--2--2----------------|--5------------|--5-----------------|


--------------------|---------------|--------------------------|
--------------------|---------------|--------------------------|
--------------------|---------------|--------------------------|
--------------------|---------------|--2-2-2-2-2-2-2-2-2-2-2-2-|


--------------------------|--------------------------|
--------------------------|--------------------------|
--2-2-2-2-2-2-2-2-2-2-2-2-|--3-3-3-3-3-3-3-3-3-3-3-3-|
--------------------------|--------------------------|


--------------------------|--------------------------|
--------------------------|--------------------------|
--------------------------|--------------------------|
--0-0-0-0-0-0-0-0-0-0-0-0-|--2-2-2-2-2-2-2-2-2-2-2-2-|




--------------------------|--------------------------|
--------------------------|--------------------------|
--2-2-2-2-2-2-2-2-2-2-2-2-|--3-3-3-3-3-3-3-3-3-3-3-3-|
--------------------------|--------------------------|


--------------------------|--------------------------|
--------------------------|--------------------------|
--------------------------|--------------------------|
--0-0-0-0-0-0-0-0-0-0-0-0-|--5-5-5-5-5-5-5-5-5-5-5-5-|


--------------------------|--------------------------|
--------------------------|--------------------------|
--------------------------|--------------------------|
--0-0-0-0-0-0-0-0-0-0-0-0-|--2-2-2-2-2-2-2-2-2-2-2-2-|


--------------------------------|--------------------------|
--------------------------------|--------------------------|
--------------------------------|--------------------------|
--9-9-9-9-9-9-10-10-10-10-10-10-|--5-5-5-5-5-5-5-5-5-5-5-5-|


--------------------------|--------------------------------|
--------------------------|--------------------------------|
--------------------------|--------------------------------|
--0-0-0-0-0-0-0-0-0-0-0-0-|--9-9-9-9-9-9-10-10-10-10-10-10-|

  
--------------------------|--------------------------|
--------------------------|--------------------------|
--------------------------|--------------------------|
--5-5-5-5-5-5-5-5-5-5-5-5-|--0-0-0-0-0-0-0-0-0-0-0-0-|


--------------------------|--------------------------------|
--------------------------|--------------------------------|
--------------------------|--------------------------------|
--2-2-2-2-2-2-2-2-2-2-2-2-|--9-9-9-9-9-9-10-10-10-10-10-10-|

  
--------------------------|--------------------------|
--------------------------|--------------------------|
--------------------------|--------------------------|
--5-5-5-5-5-5-5-5-5-5-5-5-|--0-0-0-0-0-0-0-0-0-0-0-0-|


--------------------------------|----------------------|----------------------|
--------------------------------|----------------------|----------------------|
--------------------------------|-------2--2-3--3-0--0-|-------2--2-3--3-0--0-|
--9-9-9-9-9-9-10-10-10-10-10-10-|--2--2----------------|--2--2----------------|


----------------------|----------------------|--------|----|----|----|----||
----------------------|----------------------|--------|----|----|----|----||
-------2--2-3--3-0--0-|-------2--2-3--3-0--0-|--------|----|----|----|----||
--2--2----------------|--2--2----------------|--2-----|----|----|----|----||






Tablature Legend
----------------
L - tied note
x - dead note
g - grace note
(n) - ghost note
> - accentuded note
NH - natural harmonic
AH - artificial harmonic
TH - tapped harmonic
SH - semi harmonic
PH - pitch harmonic
h - hammer on
p - pull off
b - bend
br - bendRelease
pb - preBend
pbr - preBendRelease
brb - bendReleaseBend
\n/ - tremolo bar dip
\n - tremolo bar dive
-/n - tremolo bar Release up
/n\ - tremolo bar inverted dip
/n - tremolo bar return
-\n - tremolo bar Release down
S - shift slide
s - legato slide
/ -  slide into from below or out of upwards
\ -  slide into from above or out of downwards
~ - vibrato
W - wide vibrato
tr - trill
TP - tremolo picking
T - tapping
S - slap
P - pop
< - fade in
^ - brush up
v - brush down
            
Submit corrections

comments powered by Disqus
↑ Back to top | Funeral For A Friend Bass for Beneath The Burning Tree. Lyrics for acoustic guitar and electric guitar. Tablatures and chords are parodies/interpretations of the original songs. You may use it for private study, scholarship, research or language learning purposes only