» » »

Funeral For A Friend, Beneath The Burning Tree Tabs (ver.2)

Artists:  A B C D E F G H I J K L M N O P Q R S T U V W X Y Z # 

Beneath The Burning Tree Tabs (ver.2)

Funeral For A Friend Tabs
Rating:
3/5 (3 votes)
Beneath The Burning Tree lessons Tabs too difficult? Try these video lessons and learn fast
                Beneath The Burning Tree by Funeral For A Friend


-Friendster.com/aarmy

Standard Tuning

Intro:
  |---------3x-------------|
e|--------------------------|------------------| \
B|--8-----8-8-----8---------|------------------|  \
G|----0-0-----0-0-----5h7-7-|--4h5p4-----------|   \1x
D|--------------------------|--------5---------|   /
A|--------------------------|------------------|  /
E|--------------------------|------------------| /
      * *     * *
Verse 1:
  |---------3x-------------|
e|--------------------------|------------------| \
B|--8-----8-8-----8---------|------------------|  \
G|----0-0-----0-0-----5h7-7-|--4h5p4-----------|   \1x
D|--------------------------|--------5---------|   /
A|--------------------------|------------------|  /
E|--------------------------|------------------| /
      * *     * *
  |---------3x-------------|
e|--------------------------|------------------| \
B|--8-----8-8-----8---------|------------------|  \
G|----0-0-----0-0-----5h7-7-|--4h5p4-----------|   \1x
D|--------------------------|--------7---------|   /
A|--------------------------|------------------|  /
E|--------------------------|------------------| /
      * *     * *
Chorus:

e|--------------------------|\
B|--------------------------| \ 
G|-------4444-5555-7777-----|  \
D|-2222--4444-5555-7777-----|  /2x
A|-2222--2222-3333-5555-----| /
E|-0000---------------------|/

****!!!! REPEAT ALL !!!!****(Intro, Verse and Chorus)

e|--------------|\
B|--------------| \
G|-----4--5--2--|  \
D|--2--4--5--2--|  /2x
A|--2--2--3--0--| /
E|--2-----------|/

  |--- 4x ---|  |--- 4x ---|
e|-------T15----------T17---|             \
B|-12h13---------2h13-------|              \
G|--------------------------|               \
D|--------------------------|                \
A|--------------------------|                 \
E|--------------------------|                  \
                                                4x
e|---------------------------------------|     /
B|--------------------------T17------T19-|    /
G|-9h12-T19-9h12-T19-12h14-----12h14-----|   /
D|---------------------------------------|  /
A|---------------------------------------| /
E|---------------------------------------|/

e|--------------|\
B|--------------| \
G|-----4--5--2--|  \
D|--2--4--5--2--|  /2x
A|--2--2--3--0--| /
E|--2-----------|/

e|------------10--------------|\
B|-8-----8-------8-----8------| \
G|---7-7---7-7------7-7---7-7-|  \
D|----------------------------|  /12x
A|----------------------------| /
E|----------------------------|/
     * *   * *      * *   * *

  |--- 4x ---|  |--- 4x ---|
e|-------T15----------T17---|             \
B|-12h13---------2h13-------|              \
G|--------------------------|               \
D|--------------------------|                \
A|--------------------------|                 \
E|--------------------------|                  \
                                                4x
e|---------------------------------------|     /
B|--------------------------T17------T19-|    /
G|-9h12-T19-9h12-T19-12h14-----12h14-----|   /
D|---------------------------------------|  /
A|---------------------------------------| /
E|---------------------------------------|/

e|--------------|\
B|--------------| \
G|-----4--5--2--|  \
D|--2--4--5--2--|  /2x
A|--2--2--3--0--| /
E|--2-----------|/

-----------------END-----------------
            
Submit corrections

comments powered by Disqus
↑ Back to top | Funeral For A Friend Tabs for Beneath The Burning Tree. Lyrics for acoustic guitar and electric guitar. Tablatures and chords are parodies/interpretations of the original songs. You may use it for private study, scholarship, research or language learning purposes only