» » »

Funeral For A Friend, All The Rage Bass tabs (ver.2)

Artists:  A B C D E F G H I J K L M N O P Q R S T U V W X Y Z # 

All The Rage Bass tabs (ver.2)

Funeral For A Friend Tabs
 Rating:
4.3/5 (6 votes)
All The Rage lessons Tabs too difficult? Try these video lessons and learn fast
1
                This is my first tab but I reckon its right. Work out the timing for the strums.

Drop D tuning


Structure:
Verse
Pre Chorus
Chorus
Verse
Pre Chorus
Chorus
Bridge
Verse


Verse
G|----------------------------------------------------------------------|
D|----------------------------------------------------------------------|
A|----------4-5-5-4-----------------------------------------------------|
D|-0000-2222-------5-4444-6666-0h6-0h6-0h6 x2   Work out timing for 0h6-|

Pre Chorus
G|----------------------|
D|----------------------|
A|-------------8-7-7-8--|
D|00-0000-0000----------| x5

G|-----------------|
D|-----------------|
A|--------8-7-7-8--|
D|00-00-00---------| x2

Chorus
G|------------------------------------|
D|------------------------------------|
A|-000000-555555-5h7h5h7-5-7--- <-----| Listen Carefully
D|--------------------------5-7-------| x2

G|---------------------------|
D|---------------------------|
A|---------------------------|
D|00-00-22-22-44-44-44-66-0~-|

Bridge
G|-------------------------|
D|-------------------------|
A|-------------------------|
D|00-00-22-22-44-44-44-66--| x4

G|---
D|---
A|---
D|-0~

No bass in solo

Verse x2

Cheers.
            
Submit corrections

comments powered by Disqus
↑ Back to top | Funeral For A Friend Bass for All The Rage. Lyrics for acoustic guitar and electric guitar. 1 Tablatures and chords are parodies/interpretations of the original songs. You may use it for private study, scholarship, research or language learning purposes only