» » »

Killing Me Softly Tabs (ver.2)

Artists:  A B C D E F G H I J K L M N O P Q R S T U V W X Y Z # 

Killing Me Softly Tabs (ver.2)

Fugees
Rating:
0/5 (0 votes)

Hard to play? Try these video lessons and learn fast.
                Hi! This is my first tab but i think its good though. :D

                               INTRO

e|--------------------0----------0-----------------0-------------0-----------|
B|--------------0--1-----1-------0-----------0--1-----1--0-------0-----------|
G|-----------2--------------2----0--------2-----------------2----1-----------|
D|--------2----------------------------3-------------------------2-----------|
A|-----0---------------------------------------------------------------------|
E|---------------------------------------------------------------------------|

                     
                               MELODY         
            Am7       D7              G        C                       Am7
e|----------------0-----------------0----------------------------------------|
B|----------1--3-----3-----3-----------3--1--0--1--------------------0--1----|
G|-------0--------------2--------------------------0-----0-----0-------------|
D|----------2-----0-----------0--------0--------------------------------1----|
A|----0--------------------------------------3--------3-----2-----0----------|


E|----------------------1--------3-------------------------------------------|
            
Hard to play? Try these video lessons and learn fast. | Correct




comments powered by Disqus
↑ Back to top | Tablatures and chords are parodies/interpretations of the original songs. You may use it for private study, scholarship, research or language learning purposes only