» » »

New Thing Tabs (ver.1)

Artists:  A B C D E F G H I J K L M N O P Q R S T U V W X Y Z # 

New Thing Tabs (ver.1)

Fuel
Rating:
0/5 (0 votes)

Hard to play? Try these video lessons and learn fast.
                Fuel is my favorite band, they\'re the best!!!  I\'ll tab more of their songs, this is the 
first of many to come.

Drop-D Tuning

INTRO
E|-------------------------------|
B|-------------------------------|
G|-------------------------------|
D|-7--5-3--10--5---8-88--10--11--|
A|-7--5-3--10--5---8-88--10--11--|
D|-7--5-3--10--5---8-88--10--11--|

VERSE (guitar 1)
E|-------------------------------|
B|-----------------------------7-|
G|---5----7---------------5------|
D|-7---7----------------7---7----|
A|-------------------------------|
D|-------------------------------|

VERSE (guitar 2)
E|-------------------------------|
B|-------------------------------|
G|-------------------------------|
D|-0-0--0000------0-0-0000-3/5\\3-|
A|-0-0--0000------0-0-0000-3/5\\3-|
D|-0-0--0000------0-0-0000-3/5\\3-|
--listen to the song, you\'ll hear where all this goes.

PRECHORUS
E|-------------------------------|
B|-------------------------------|
G|-------------------------------|
D|-8-88--10--5--8-88--10-11------|
A|-8-88--10--5--8-88--10-11------|
D|-8-88--10--5--8-88--10-11------|
    \"and i don\'t mind if i fall...\"

CHORUS
E|---------------------------------------|
B|---------------------------------------|
G|---------------------------------------|
D|-0--10-9-7--0--5-7-0--10-9-7--0--5-4-2-|
A|-0--10-9-7--0--5-7-0--10-9-7--0--5-4-2-|
D|-0--10-9-7--0--5-7-0--10-9-7--0--5-4-2-|
    \"i got a new thing...\"

POST-CHORUS
E|-------------|
B|-------------|
G|-------------|
D|-8-88--10-11-|
A|-8-88--10-11-|
D|-8-88--10-11-|
       \"denial comforts...\"

BRIDGE
E|--------------------------------|
B|--------------------------------|
G|--------------------------------|
D|-3h0-3h0-0--5-6--3h0-3h0-0--6-5-|
A|-3h0-3h0-0--5-6--3h0-3h0-0--6-5-|
D|-3h0-3h0-0--5-6--3h0-3h0-0--6-5-|
-after he screams \"comfort.. comfort.. comfort.. COOOOOOOM YEAH!\"


And there you have it... that\'s the whole song.  I think I made a couple mistakes in 
the chorus, so let me know if you hear anything wrong.  FUEL IS THE BEST!!!

Ryan Sanders
Fry\'s Hall of Tabs
            
Hard to play? Try these video lessons and learn fast. | Correct




comments powered by Disqus
↑ Back to top | Tablatures and chords are parodies/interpretations of the original songs. You may use it for private study, scholarship, research or language learning purposes only