» » »

Hemorrhage Bass tabs (ver.2)

Artists:  A B C D E F G H I J K L M N O P Q R S T U V W X Y Z # 

Hemorrhage Bass tabs (ver.2)

Fuel
Rating:
0/5 (0 votes)

Hard to play? Try these video lessons and learn fast.
                This is the other tab that was on here where the author only dropped the top string to 
instead of the whole guitar so I just transcribed it to all strings Flat so if anything 
wrong I did not author the tab I just transcribed it.

INTRO:
Gb----------------------|
Db----------------------|
Ab---2--2--0-0--0-------|
Eb-----------------0----|


CHORUS:
Gb------------------------------|
Db------------------------------|
Ab-------2-4-5--5-0--0----------|
Eb--3-3-----------------2--2-2--|

Gb--------------------------|
Db--------------------------|
Ab--------2-4-5--5----------|
Eb--3-3------------2-2-2-2--|


VERSE:
Gb---------------------------|
Db---------------------------|
Ab--2--2-0--0--------0---3-4-|
Eb-------------3--3----------|       x2

Gb----------------------|
Db----------------------|
Ab--2--2-0--0--------0--|
Eb-------------3--3-----|            x4


PRE-CHORUS:
Gb-------------------------------------------|
Db-------------------------------------------|
Ab-------------5--5-5--5-5-0--0---5--4--2--0-|
Eb--3-2-0--0---------------------------------|

Gb---------------------------------------|
Db---------------------------------------|
Ab---------5--5-5--5-5-0--0--------------|
Eb--0--0---------------------2-2--2-2-2--|


CHORUS:
Gb----------------------------------|
Db----------------------------------|
Ab-------2-4-5--5h7p5--0--0---------|
Eb--3-3----------------------2--2-2-|

Gb------------------------------|
Db------------------------------|
Ab-------2-4-5--5h7p5-----------|
Eb--3-3---------------2-2-2-2---|


BRIDGE:
Gb-------------------------------------|
Db-------------------------------------|
Ab-------0000--2222-0-2222-4444-5555-4-|
Eb--3333-------------------------------|

Gb-------------------------------|
Db-------------------------------|
Ab---5555-7777-9999--------------|
Eb------------------0--2-2-2--2~-|


SOLO:
Gb---------------------------|
Db---------------------------|
Ab--2--2-0--0---------0--4-5-|
Eb--------------3--3---------|       x4


BUILD-UP:
Gb-------------------------------------|
Db-------------------------------------|
Ab--2-222222-44444444-5555-7777-9999\0-|
Eb-------------------------------------|


PRE-CHORUS:
Gb-------------------------------------------|
Db-------------------------------------------|
Ab-------------5--5-5--5-5-0--0---5--4--2----|
Eb--3-2-0--0-------------------------------5-|

Gb---------------------------------------|
Db---------------------------------------|
Ab---------5--5-5--5-5--0--0-------------|
Eb--0--0----------------------2-2--2-2-2-|


CHORUS:
Gb----------------------------------|
Db----------------------------------|
Ab-------2-4-5--5h7p5--0--0---------|
Eb--3-3----------------------2--2-2-|

Gb------------------------------------------|
Db------------------------------------------|
Ab-------2-4-5--5-7p5p3-0--0--2p0-----------|
Eb--3-3---------------------------3--2--2-2-|     x5


OUTRO:
Gb--------------|
Db--------------|
Ab------5-5--0~-|
Eb--3-----------|
            
Hard to play? Try these video lessons and learn fast. | Correct




comments powered by Disqus
↑ Back to top | Tablatures and chords are parodies/interpretations of the original songs. You may use it for private study, scholarship, research or language learning purposes only