» » »

Fuel, Hemorrage (In My Hands) Bass tabs (ver.1)

Artists:  A B C D E F G H I J K L M N O P Q R S T U V W X Y Z # 

Hemorrage (In My Hands) Bass tabs (ver.1)

Fuel Tabs
Rating:
0/5 (0 votes)
Hemorrage (In My Hands) lessons Tabs too difficult? Try these video lessons and learn fast
                 Fuel - Hemorrage (In My Hands)

  This bass tab is for a half-step down tunning(Eb,G#,C#,F#).I am 99% positive that this 
is correct, the tabs on this site just didn't cut it for me. So this is my version.

INTRO:
F#------------------------------------------------------------|
C#------------------------------------------------------------|
G#------------------------------------------------------------|
Eb---7---5---0------------------------------------------------|

(There is no bass playing in the very first verse, you come in after starting with the 
pre-chorus)

PRE-CHORUS:
F#------------------------------------------------------------|
C#------------------------------------------------------------|
G#------5------------5----------------------------------------|
Eb---0-----5------0-----5-------------------------------------|


CHORUS:
F#------------------------------------------------------------|
C#------------------------------------------------------------|
G#------5----------------0h35-3h5-----------------------------|
Eb---3-----5---2------3----------2----------------------------|


VERSE:
F#------------------------------------------------------------|
C#------------------------------------------------------------|
G#---2-------------------2------------------------------------|
Eb------5--3--5-7/9---------5--3--5-9/7-----------------------|

F#------------------------------------------------------------|
C#------------------------------------------------------------|
G#---2-------------------2------------------------------------|
Eb------5--3--5-------------5--3--5---------------------------|

F#------------------------------------------------------------|
C#------------------------------------------------------------|
G#---2-------------------2------------------------------------|
Eb------5--3--5-------------5--3--5---------------------------|


PRE-CHORUS:
F#------------------------------------------------------------|
C#------------------------------------------------------------|
G#------5-----7h5--5h4---------5------------------------------|
Eb---0-----5----------------0-----5--2------------------------|


CHORUS:
F#------------------------------------------------------------|
C#------------------------------------------------------------|
G#----0h35--5h3-----------0h35--5h3---------------------------|
Eb---3---------5--2------3---------2--------------------------|


BRIDGE:
F#------------------------------------------------------------|
C#------------------------------------------------------------|
G#-------------------2222-3333-4444-3-------------------------|
Eb---3333-5555-7777-5-----------------------------------------|

F#------------------------------------------------------------|
C#------------------------------------------------------------|
G#---4444-5555-7777-9999--------------------------------------|
Eb------------------------/2-22-222--2------------------------|


SOLO:
F#------------------------------------------------------------|
C#------------------------------------------------------------|
G#---2-----------------2--------------------------------------|
Eb------5--3--5--7h9------5--3--5--7h9------------------------|

F#------------------------------------------------------------|
C#------------------------------------------------------------|
G#---2-----------------22222222-33333333-4444-5555-7777-9999--|
Eb------5--3--5--7h9------------------------------------------|


PRE-CHORUS:
F#------------------------------------------------------------|
C#------------------------------------------------------------|
G#------5-----7h5--5h4---------5------------------------------|
Eb---0-----5----------------0-----5--2------------------------|


CHORUS:
F#------------------------------------------------------------|
C#------------------------------------------------------------|
G#----0h35--5h3---3h2--------0h35--5h3---3h2------------------|
Eb---3---------5-----2------3---------5-----2-----------------|

F#------------------------------------------------------------|
C#------------------------------------------------------------|
G#----0h35--5h3---3h2--------0h35--5h3---3h2------------------|
Eb---3---------5-----2------3---------5-----2-----------------|

F#------------------------------------------------------------|
C#------------------------------------------------------------|
G#----0h35--5h3---3h2--------0h35--5h3---3h2------------------|
Eb---3---------5-----2------3---------5-----2-----------------|

F#------------------------------------------------------------|
C#------------------------------------------------------------|
G#----0h35--5h3---3h2----------5-5----------------------------|
Eb---3---------5-----2------3-------5-------------------------|

   There it is, I hope you enjoy learning this song from my tab. I thank you for your time.
            

comments powered by Disqus
↑ Back to top | Fuel Bass for Hemorrage (In My Hands). Lyrics for acoustic guitar and electric guitar. Tablatures and chords are parodies/interpretations of the original songs. You may use it for private study, scholarship, research or language learning purposes only