» » »

Fuel, Hemmorrage Tabs (ver.1)

Artists:  A B C D E F G H I J K L M N O P Q R S T U V W X Y Z # 

Hemmorrage Tabs (ver.1)

Fuel Tabs
 Rating:
4/5 (4 votes)
Hemmorrage lessons Tabs too difficult? Try these video lessons and learn fast
1
                "(2)
Original tuning		 e  B  G  D A E
Tune down a full step to d# C# F# E B D# 
This is song is played tuned down 
Intro /Verse
----------------------0-------------0-----------------|
---------3--------------3------------3-----------3----|
-----4----4-------4-------4-----4------4-----4-----4--|
---4---4----4---4---4---------4---4--------4---4----4-|
-2------------0--------------------------0------------|
----------------------------3-------------------------|
 Memomries are where we laid them .......                                                                             

--0-0--2-2-2-2-0-0-0-0-0-0--|
--0-0--3-3-3-3-2-2h3-3-3p2--|
--0-0--2-2-2-2-2-2-2-2-2-2--|
--2-2--0-0-0-0-2-2-2-2-2-2--|
--2-2--0-0-0-0-0-0-0-0-0-0--|
--0-0--0-0-0-0-0-0-0-0-0-0--|
 Emin     D      A                                                            
Don't Fall away 
---------------------------|
---------------------------|
-4-4--7-7-7-7-6-6h7-7-7p6--|
-5-5--7-7-7-7-7-7-5-5-5-7--|
-5-5--5-5-5-5-7-7-7-7-7-7--|
-3-3----------5-5-5-5-5-5--|
   G5     D5         A5                                                       
In my hands in my hands again
-------------------|
-------------------|
-4-4-7-7-7-7-------|
-5-5-7-7-7-7-4-4-4-|
-5-5-5-5-5-5-4-4-4-|
-3-3---------2-2-2-|
 G5   D5       F#5                                                            
Love lies bleeding
"            
Submit corrections

comments powered by Disqus
↑ Back to top | Fuel Tabs for Hemmorrage. Lyrics for acoustic guitar and electric guitar. 1 Tablatures and chords are parodies/interpretations of the original songs. You may use it for private study, scholarship, research or language learning purposes only