» » »

Fuel, Hemmorage Solos Tabs (ver.1)

Artists:  A B C D E F G H I J K L M N O P Q R S T U V W X Y Z # 

Hemmorage Solos Tabs (ver.1)

Fuel Tabs
 Rating:
4/5 (4 votes)
Hemmorage Solos lessons Tabs too difficult? Try these video lessons and learn fast
                Fuel 

Hemmorage Solo's


tuned down 1/2 step

Solo : (2:19)
guitar w/ distortion and fast modulation effect
e-----------------------------------19-------19---------|
b--19~~~~~~~~~~~~----------19-(19)------19--------------|
g------------------16~~~~------------------------16-16--|
d-------------------------------------------------------|
a-------------------------------------------------------|
e-------------------------------------------------------|


e-------------------------19.--------19-------19--------|
b-----------------------------19--19----19-19-----19----|
g--19-19.--18--18--18-18--------------------------------|
d-------------------------------------------------------|
a-------------------------------------------------------|
e-------------------------------------------------------|


e------------------------------------------14-14--------|
b----------------17-17~~--------17-17--15~-------15-17~-|
g-16----16-14~~----------14-14--------------------------|
d----16-------------------------------------------------|
a-------------------------------------------------------|
e-------------------------------------------------------|


e--14-14--17~~--19-14-14-15-14--------------------------|
b-------------------------------------------------------|
g-------------------------------------------------------|
d-------------------------------------------------------|
a-------------------------------------------------------|
e-------------------------------------------------------|

  Em        Dsus2      A    Asus4        A
  Dont fall       away, and leave me to myself.

Outro Solo : (3:22)                          let ring
e--------------------------------------------~~~~~~~----|
b---2h3--3--2~~~-3--3---2---(2)--------2--2--2----2-----|
g--------------------------------2--2--2--2--2--2---2---|
d-------------------------------------------------------|
a-------------------------------------------------------|
e-------------------------------------------------------|


e-------------------------------------------------------|
b---2--h3--3--2---3----2--------------------2--2--2h3---|
g--------------------2-----2--2--2--2--2--2----2--------|
d-------------------------------------------------------|
a-------------------------------------------------------|
e-------------------------------------------------------|


e-------------------------------------------------------|
b--2--2--3-3-2-2---2-----2--2-(2)----2----2-3--3--3-2-3-|
g---------------------2--2--2-(2)--2----2---------------|
d-------------------------------------------------------|
a-------------------------------------------------------|
e-------------------------------------------------------|


e-------------------|
b-2~~~~~~~~~~-------|
g(2)~~~~~~~~--------|
d(2)~~~~~~~~~-------|
a(0)~~~~~~~~~-------|
e-------------------|
            
Submit corrections

comments powered by Disqus
↑ Back to top | Fuel Tabs for Hemmorage Solos. Lyrics for acoustic guitar and electric guitar. Tablatures and chords are parodies/interpretations of the original songs. You may use it for private study, scholarship, research or language learning purposes only