>
 >
Die Like This

Die Like This Guitar Tabs

Fuel - Die Like This chords, tabs, tablatures, lyrics

Guitar lessons | Add/correct | Request | Top 50 tabs Artists:  A B C D E F G H I J K L M N O P Q R S T U V W X Y Z 0-9

Die Like This Guitar Tabs – Fuel

CD, Sheet music, Poster

Do you like Die Like This? Share with your friends now
ChordsTabsUkulele

Standard Tuning

CHORDS:
Asus2: X02200		Am: X02210		G6: 320000
Gsus4: 32001X		Fmaj7: 133200		F: 133211
E: 022100		E7(b9): 0-11-12-10-0-0	Am/G: 3X2210
F5: 133XXX		Cmaj7: 320000		C/B: X2X010
G: 3554XX		C5: X355XX		Cmaj7/B: X254XX
Asus: X02230		Dm: XX0231		E5: 022XXX
D7sus2/F#: 200210


INTRO: (0:00)
  Asus2 Am  G6  Gsus4   Fmaj7 F   E~   /E7(b9)
|---------------------|-----------------------|
|---------------------|-----------------------|
|-4---5-----4---5-----|-4---5-----4-----------|
|---------------------|-----------------------|
|---------------------|-----------------------|
|---------------------|-----------------------|

VERSE 1: (0:16)
Am                  Am/G                            
 Angels cry tonight, 
                               F                E
As the rain washed that lonely place from their eyes
Am                 Am/G
 Softly as she said
                               F        E
You know our hearts will never get out alive, she made no

PRE-CHORUS: (0:37)
  sound, and goodbye,                  yeah    she said
  F5            Cmaj7 C/B    Am        Cmaj7   F   G
|-------------|-----0----------------|-0---------------|
|-------------|-----0----------1-----|-0---------------|
|-------------|-----0----------2-----|-0-------2---4---|
|-3-3-3-3-3-3-|-2---2--------2-------|-2-------3---5---|
|-3-3-3-3-3-3-|-3-----2b-(2)-0---0-2-|-3-------3---5---|
|-1-1-1-1-1-1-|----------------------|---------1---3---|

CHORUS: (0:48)
  Love don't call on me again, I never wanna 
  C5                    Cmaj7/B       
|-------------------------------------------|
|-------------------------------------------|
|-5---5-5-5---5-5-5---5-4---4---------------|
|-5---5-5-5---5-5-5---5-5---5---------------|
|-3---3-3-3---3-3-3---3-2---3---3-----2v~---|
|----------------------------------5--------|

  cry like this, die like this
  Am             F
|--------------------------------|
|-1---1--1-1---1-----------------|
|-2---2--2-2---2-2---2---2-2---2-|
|-2---2--2-2---2-3---3---3-3---3-|
|-0---0--0-0-0---3---3---3-3---3-|
|----------------1---1---1-1-1---|

  no more favors my ol' friend, I never wanna 
  C5                    Cmaj7/B       
|-------------------------------------------|
|-------------------------------------------|
|-5---5-5-5---5-5-5---5-4---4---------------|
|-5---5-5-5---5-5-5---5-5---5---------------|
|-3---3-3-3---3-3-3---3-2---3---3-----2v~---|
|----------------------------------5--------|

  cry like this, die like this
  Am             F                 Fmaj7
|--------------------------------|-0----------------|
|-1---1--1-1---1-----------------|-0----------------|
|-2---2--2-2---2-2---2---2-2---2-|-2----------------|
|-2---2--2-2---2-3---3---3-3---3-|-3----------------|
|-0---0--0-0-0---3---3---3-3---3-|-3----------------|
|----------------1---1---1-1-1---|-1----------------|

  ah,______
  Asus2 Am  G6  Gsus4  Fmaj7 F   E~ /E7(b9) Am       Asus2
|--------------------|--------------------|---------------------|
|--------------------|--------------------|---------------------|
|-4---5-----4---5----|-4---5-----4--------|-2-------------------|
|--------------------|--------------------|---------------------|
|--------------------|--------------------|---------------------|
|--------------------|--------------------|---------------------|
                                          |
                                          |
                                          |---------------------|
                                          |-----1----0-0--------|
                                          |-2---2----2-2----2---|
                                          |-2---------------2---|
                                          |-0-------------0-----|
                                          |---------------------|

VERSE 2: (1:30)
Am                  Am/G                            
 So we danced alone, 
                      F                  E
But pain is always so betrayed, with our eyes
Am                 Am/G
 But I know now
              F               E
On hearts the faithless can't rely, do dreams make no 

PRE-CHORUS: (1:50)
  sound, as they die                   yeah    she said
  F5            Cmaj7 C/B    Am        Cmaj7   F   G
|-------------|-----0----------------|-0---------------|
|-------------|-----0----------1-----|-0---------------|
|-------------|-----0----------2-----|-0-------2---4---|
|-3-3-3-3-3-3-|-2---2--------2-------|-2-------3---5---|
|-3-3-3-3-3-3-|-3-----2b-(2)-0---0-2-|-3-------3---5---|
|-1-1-1-1-1-1-|----------------------|---------1---3---|

CHORUS: (2:02)
  Love don't call on me again, I never wanna 
  C5                    Cmaj7/B       
|-------------------------------------------|
|-------------------------------------------|
|-5---5-5-5---5-5-5---5-4---4---------------|
|-5---5-5-5---5-5-5---5-5---5---------------|
|-3---3-3-3---3-3-3---3-2---3---3-----2v~---|
|----------------------------------5--------|

  cry like this, die like this
  Am             F
|--------------------------------|
|-1---1--1-1---1-----------------|
|-2---2--2-2---2-2---2---2-2---2-|
|-2---2--2-2---2-3---3---3-3---3-|
|-0---0--0-0-0---3---3---3-3---3-|
|----------------1---1---1-1-1---|

  no more favors my ol' friend, I never wanna 
  C5                    Cmaj7/B       
|-------------------------------------------|
|-------------------------------------------|
|-5---5-5-5---5-5-5---5-4---4---------------|
|-5---5-5-5---5-5-5---5-5---5---------------|
|-3---3-3-3---3-3-3---3-2---3---3-----2v~---|
|----------------------------------5--------|

  cry like this, die like this
  Am             F   
|--------------------------------|
|-1---1--1-1---1-----------------|
|-2---2--2-2---2-2---2---2-2---2-|
|-2---2--2-2---2-3---3---3-3---3-|
|-0---0--0-0-0---3---3---3-3---3-|
|----------------1---1---1-1-1---|

BRIDGE: (2:22)
E            Am Asus E            Am Asus
Remember the nights, by the river side
Dm         Am
No secrets from our sins
        C
And the world would not 
 
  subside
  E5          F5      E5          F5
|-------------------|-------------------|
|-------------------|-------------------|
|-------------------|-------------------|
|-2-2-2-2-2-2-3-3-3-|-2-2-2-2-2-2-3-3-3-|
|-2-2-2-2-2-2-3-3-3-|-2-2-2-2-2-2-3-3-3-|
|-0-0-0-0-0-0-1-1-1-|-0-0-0-0-0-0-1-1-1-|

  yeah,___
  E5          F5
|-------------------|--------------------|
|-------------------|--------------------|
|-------------------|--------------------|
|-2-2-2-2-2-2-3-3-3-|--------------------|
|-2-2-2-2-2-2-3-3-3-|-7---5---3---2b-(2)-|
|-0-0-0-0-0-0-1-1-1-|--------------------|

(2:51)
 And the worst thing, is knowing, that I'll survive
  Am               Am/G             D7sus2/F#
|-------0--------|-------0--------|-------0--------|
|----------1---1-|----------1---1-|----------1---1-|
|-----2------2---|-----2------2---|-----2------2---|
|---2------------|---2------------|---0------------|
|-0--------------|----------------|----------------|
|----------------|-3--------------|-2--------------|
                                                and she said
  E
|-0--------------|---------------|-----------------------------|
|-0--------------|---------------|-----------------------------|
|-1-----------1b-|-(1)-----------|-----------------------------|
|-2--------------|---------------|-----------------------------|
|-2--------------|---------------|-X-----------X---------------|
|-0--------------|-------------X-|---X---X---X---X---X---X-10\-|

CHORUS: (3:06)
  Love don't call on me again, I never wanna 
  C5                    Cmaj7/B       
|-------------------------------------------|
|-------------------------------------------|
|-5---5-5-5---5-5-5---5-4---4---------------|
|-5---5-5-5---5-5-5---5-5---5---------------|
|-3---3-3-3---3-3-3---3-2---3---3-----2v~---|
|----------------------------------5--------|

  cry like this, die like this
  Am             F
|--------------------------------|
|-1---1--1-1---1-----------------|
|-2---2--2-2---2-2---2---2-2---2-|
|-2---2--2-2---2-3---3---3-3---3-|
|-0---0--0-0-0---3---3---3-3---3-|
|----------------1---1---1-1-1---|

  no more favors my ol' friend, I never wanna 
  C5                    Cmaj7/B       
|-------------------------------------------|
|-------------------------------------------|
|-5---5-5-5---5-5-5---5-4---4---------------|
|-5---5-5-5---5-5-5---5-5---5---------------|
|-3---3-3-3---3-3-3---3-2---3---3-----2v~---|
|----------------------------------5--------|

  cry like this, die like this,    cry like this, and die
  Am             F                 Am              Fmaj7
|--------------------------------|-----------------0--------|
|-1---1--1-1---1-----------------|-1---1-1-1---1---0--------|
|-2---2--2-2---2-2---2---2-2---2-|-2---2-2-2---2---3--------|
|-2---2--2-2---2-3---3---3-3---3-|-2---2-2-2---2---2--------|
|-0---0--0-0-0---3---3---3-3---3-|-0---0-0-0-0-----2--------|
|----------------1---1---1-1-1---|-----------------1--------|

Outro: (3:32)
  Asus2 Am                 Fmaj7 F    
|------------------------|-----------------------|
|-10---12-13---15--------|-10--------------------|
|------------------------|-----------------------|
|-7----9--10---12--------|-7---------------------|
|------------------------|-----------------------|
|------------------------|-----------------------|

  Asus2 Am                 Fmaj7 F    
|------------------------|--------------------17-|
|-10---12-13---15--------|-17--------------------|
|------------------------|--------------------14-|
|-7----9--10---12--------|-14--------------------|
|------------------------|-----------------------|
|------------------------|-----------------------|

  Asus2 Am                  Fmaj7 F
|-17-17-17-17-17-17-17-17-|-17-17-17-17-17-17-17-17-|
|-------------------------|-------------------------|
|-14-14-14-14-14-14-14-14-|-14-14-14-14-14-14-14-14-|
|-------------------------|-------------------------|
|-------------------------|-------------------------|
|-------------------------|-------------------------|

  Asus2 Am                  Fmaj7 F
|-15/17-17-17-17-17-17-17-|-17\---------------------|
|-------------------------|----------10/15-10/15-17-|
|-12/14-14-14-14-14-14-14-|-14\---------------------|
|-------------------------|-------------------------|
|-------------------------|-------------------------|
|-------------------------|-------------------------|

  Asus2          Am
|-20---20---20---19---19---19---19---19----|
|---17---17----17---17---17---17---17---17-|
|------------------------------------------|
|------------------------------------------|
|------------------------------------------|
|------------------------------------------|

  Fmaj7            F
|-19-20-20-20-20-20-20-20-20-20-20b---(20)-17-17-|
|------------------------------------------------|
|------------------------------------------------|
|------------------------------------------------|
|------------------------------------------------|
|------------------------------------------------|

  Asus2               Am
|-20---20---20---20---19---19---19---19-----------|
|---17---17---17---17---17---17---17---17---18-18-|
|-------------------------------------------------|
|-------------------------------------------------|
|-------------------------------------------------|
|-------------------------------------------------|

  Fmaj7          F
  ~~~~~~~~~~~~~~~~~~~~~~~~~~~~~~~~~~
|------------------------------------|
|-18-18-18-18-18-18-18---18-18-18-18-|
|------------------------------------|
|------------------------------------|
|------------------------------------|
|------------------------------------|

  Asus2 Am                   Fmaj7   F
|--------------------------|-----------------------|
|-18----17v~---------------|---17-17-17-17\6---17b-|
|--------------------------|-----------------------|
|--------------------------|-----------------------|
|--------------------------|-----------------------|
|--------------------------|-----------------------|

  Asus2       Am
|-----------------------------------|
|---(17)-15p17-15-------------------|
|-----------------17v---17\16-16-16-|
|-----------------------------------|
|-----------------------------------|
|-----------------------------------|

  Fmaj7            F                           (fade out)
|--------------------------------------------|
|--------------------------------------------|
|-16\14-14-14-14\12-12-12\10-10-10-10\9-9-10-|
|--------------------------------------------|
|--------------------------------------------|
|--------------------------------------------|





Comments


Popular Fuel tabs & chords
Running Away Bass Tabs
Shimmer 3 Bass Tabs
Wasted Time Bass Tabs
Hemorrhage (In My Hands) 1 Chords
Million Miles Chords
Shimmer 3 Correct Chords Chords
Sunburn 1 Chords
Hemmorage Solos Tabs
Hemorrhage In My Hands 4 Tabs
Shimmer Ukulele


Song lyrics



↑ Back to top | Tablatures and chords are parodies/interpretations of the original songs. You may use it for private study, scholarship, research or language learning purposes only
© 2014 AZChords.com Contact us | Privacy policy | DMCA | Add/correct tabs | Request tabs | Top 50 tabs