>
 >
Once In A Lifetime

Once In A Lifetime Chords

Freestyle - Once In A Lifetime chords, tabs, tablatures, lyrics

Guitar lessons | Add/correct | Request | Top 50 tabs Artists:  A B C D E F G H I J K L M N O P Q R S T U V W X Y Z 0-9

Once In A Lifetime Chords – Freestyle

CD, Sheet music, Poster

Do you like Once In A Lifetime? Share with your friends now
ChordsChords v2TabsTabs v2Tabs v3Tabs v4Tabs v5Ukulele
Once in a lifetime
Freestyle

____________________________________________________________________________
********************************************************************
This is one of the best songs from freestyle i heard... ayos 2 pag npaknggan nyo.
there is no tab for this song so wat i can give is the chordz.

____________________________________________________________________________
********************************************************************

Intro: D5-C5-G


        A5                Abm                  E             Bm7
  |-----0-----|        |----4-----|       |----0----|     |----2----|
  |-----0-----|        |----4-----|       |----0----|     |----3----|
  |-----2-----|        |----4-----|       |----1----|     |----2----|
  |-----2-----|        |----6-----|       |----2----|     |----4----|
  |-----0-----|        |----6-----|       |----2----|     |----2----|
  |-----------|        |----4-----|       |----0----|     |----x----|

        D                  F#m
  |-----2-----|        |----2-----|       
  |-----3-----|        |----2-----|    
  |-----2-----|        |----2-----|      
  |-----0-----|        |----4-----|       
  |-----------|        |----4-----|     
  |-----------|        |----2-----|       

       D5                  C5                  G 
  |-----5-----|        |----3-----|       |----3----|     
  |-----5-----|        |----3-----|       |----3----|    
  |-----7-----|        |----5-----|       |----0----|    
  |-----7-----|        |----5-----|       |----0----|    
  |-----5-----|        |----3-----|       |----2----|     
  |-----------|        |----------|       |----3----|     



Verse1
A5                        E
Been thinkin about you baby
         Bm7
And i dont know what to do
       D
All i think about is you
A5                       E
Seems everything around me
               Bm7
Things ive never understood
                    D
They all make sense when im with you

Refrain
Bm7                      F#m
Oh ive heard it all before 
Bm7                               F#m
Finding so called love then you leave it behind
Bm7                F#m
But now i feel so sure
             D
I'll listen to my heart this time
          E
So I'll lay it on the line

Chorus:
A                      E
I know that what ive found is 
                 Bm7-D
Once in a lifetime
A                      E
And i know there's no way out
                     Bm7-D
COz once in a lifetime

VErse 2 (do verse 1 chordz)

Ive always been so lonely
No one there for me to hold
And every night was just so cold
Oh dont get me wrong Ive been around
But ive resigned myself to thinkin
Mine is just anothe story often told

Bridge:
G                             A
Its not like im running outta time
G                           A
Im taking everything in stride
G                             A
Its just i never thought id find
G                               E
What would make me change my mind

(Repeat chorus 2 frets higher)





Comments


Popular Freestyle tabs & chords
Bakit Ngayon Ka Lang? Chords
Before I Let You Go Chords
Before I Let You Go 1 Chords
Got To Be There Chords
So Slow Chords
You Are The One Chords
Paano 1 Tabs
So Slow 2 Tabs
So Slow 4 Tabs
Tell Me How You Feel Tabs


Song lyrics



↑ Back to top | Tablatures and chords are parodies/interpretations of the original songs. You may use it for private study, scholarship, research or language learning purposes only
© 2014 AZChords.com Contact us | Privacy policy | DMCA | Add/correct tabs | Request tabs | Top 50 tabs