» » »

Bakit Ngayon Ka Lang Bass tabs (ver.1)

Artists:  A B C D E F G H I J K L M N O P Q R S T U V W X Y Z # 

Bakit Ngayon Ka Lang Bass tabs (ver.1)

Freestyle
Rating:
0/5 (0 votes)

Tabs too difficult? Try these video lessons and learn fast.
                Bakit Ngayon Ka Lang
Freestyle

Intro 
G|-------------------|----------------------------|
D|-------------------|----------------------------|
A|-----2~---3~----5~-|------2~---3---------5~---5-|
E|-3~----------------|-3~-------------1~----------|

Verse 
G|-----------------------|----------------------------|
D|-----------------------|----------------------------|
A|-----3~---2~---0~---5~-|-----3~---2~---0~-----5\-4\-|
E|-3~--------------------|-3~-------------------------|

Refrain 
G|----------------|------------------------------|
D|----------------|------------------------------|
A|-3--3-5--5----7-|-3--3-5--5----7--7----5---5-5-|
E|----------7--7--|----------7--7----5--5--------|

Chorus1 
G|------------------------|-------------------|-----9------------------|
D|------------------------|-------------------|----9-9-----------------|
A|-----2--2-3--3-5--5h7p5-|-----2--2-3--3-5-6-|-7-----7--7h9p7---------|
E|-3--3-------------------|-3--3--------------|-----------------5--5-5-|

G|----------------|----------------|
D|----------------|----------------|
A|-7--7-7---------|---------3~--5~-|
E|---------5--5-5-|-5~--7~---------|

G|------------------------|----------------7---|
D|------------------------|---------------7-7--|
A|-----2----3----5--5h7p5-|-----2---3---5----5-|      repeat refrain 
E|-3----------------------|-3------------------|

Chorus2 
G|------------------------|-------------------|-----9------------------|
D|------------------------|-------------------|----9-9-----------------|
A|-----2--2-3--3-5--5h7p5-|-----2--2-3--3-5-6-|-7-----7--7h9p7---------|
E|-3--3-------------------|-3--3--------------|-----------------5--5-5-|

G|----------------|-----------------------------------------------|
D|----------------|-----------------------------------------------|
A|-7--7-7---------|----------3--3-5-5-5-5-5-5-5-5-5-5-5-5-5-5-5-5-|
E|---------5--5-5-|-5--5-7--7-------------------------------------|

Repeat chorus1

Ending 
G|---------------|---------------|---------------|--------------------|
D|---------------|---------------|---------------|--------------------|
A|-7---3---2-----|---------3---5-|-----2---3---5-|----2---3---5--5----|    
E|-------------5-|-5---7---------|-3-------------|-3----------------3-|
            
Tabs too difficult? Try these video lessons and learn fast.




comments powered by Disqus
↑ Back to top | Tablatures and chords are parodies/interpretations of the original songs. You may use it for private study, scholarship, research or language learning purposes only