» » »

Photosynthesis Bass tabs (ver.2)

Artists:  A B C D E F G H I J K L M N O P Q R S T U V W X Y Z # 

Photosynthesis Bass tabs (ver.2)

Frank Turner
Rating:
0/5 (0 votes)

Hard to play? Try these video lessons and learn fast.
                
Verse

    G              D              A        G       A           D-G-G
G---------/    ---------/    ---------------------------------------|
D--5--5---/    ---------/    ---7--7--765-5--5---567--7---76--------|
A----5--55/ x2 -5---5---/ x2 -----7--7------5--5----7---7-----5---5-|
E---------/    ---5--55-/    -----------------------------------3---|

Chorus

G -------------|
D -------------|
A --------0--5-|
E -0---3-------|

Bridge
       Bm               A                E               A        D
G -----------------------------------------------------------------------|
D -----------------------------------------------------------------------|
A -2222222222222222-------------------------------------------5555555555-|
E ------------------555555555333333300000000000000000055555555 ----------|
            
Hard to play? Try these video lessons and learn fast. | Correct




comments powered by Disqus
↑ Back to top | Tablatures and chords are parodies/interpretations of the original songs. You may use it for private study, scholarship, research or language learning purposes only