» » »

Balthazar Impresario Tabs (ver.2)

Artists:  A B C D E F G H I J K L M N O P Q R S T U V W X Y Z # 

Balthazar Impresario Tabs (ver.2)

Frank Turner
Rating:
0/5 (0 votes)

Hard to play? Try these video lessons and learn fast.
                -------------------------------------------------------------------------------
                     Balthazar Imresario - Frank Turner
-------------------------------------------------------------------------------

Tuning:Standard

Verse:

Keep this D held down
and hit it while plucking notes

e|-2-------------------------------------------------------------------------|
B|-3-------------------------------------------------------------------------|
G|-2----2---------2h 4----2-------------2----------2h 4----2-----------------|
D|-0---------4--------------------4-----------4------------------4p-2p---0---|
A|---------------------------------------------------------------------------|
E|---------------------------------------------------------------------------|
     A
e|--------------------------------------------------2---------------------------|
B|--------------------------------------------------3---------------------------|
G|--------------------------------------------0-----2---------------------------|
D|---2----4----2-----4-----2------0-----0-----0-----0---------------------------|
A|---0----0----0-----0-----0------0-----2---------------------------------------|
E|------------------------------------------------------------------------------|

  for last verse play this one with G in addition to first one with D

e|----------------------------------------------------------3------------------|
B|----------------------------------------------------------3------------------|
G|--------------------------------------------0-----0-------0------------------|
D|---2----4----2-----4-----2------0-----0-----0-----0-------0------------------|
A|---0----0----0-----0-----0------0-----2-------------------2------------------|
E|----------------------------------------------------------3------------------|
 Chorus:

strum these weird chords i just kinda made up and are probably wrong, then the G for a while

e|------0--------0---------3-------------------------------------------------|
B|------3--------7---------3-------------------------------------------------|
G|------0--------7---------0-------------------------------------------------|
D|------0--------0---------0-------------------------------------------------|
A|------5--------5---------2-------------------------------------------------|
E|------5--------7---------3-------------------------------------------------|


e|--------------------------------------------------0------0---------3----------|
B|--------------------------------------------------3------7---------3----------|
G|--------------------------------------------0-----0------7---------0----------|
D|---2----4----2-----4-----2------0-----0-----0-----0------0---------0----------|
A|---0----0----0-----0-----0------0-----2-----------5------5---------2----------|
E|--------------------------------------------------5------7---------3----------|

e|--------------------------------------------------2---------------------------|
B|--------------------------------------------------3---------------------------|
G|--------------------------------------------0-----2---------------------------|
D|---2----4----2-----4-----2------0-----0-----0-----0---------------------------|
A|---0----0----0-----0-----0------0-----2---------------------------------------|
E|------------------------------------------------------------------------------|


after the last chorus go to outro:

only lasts a moment but for me youll never die.. repeat a lot through singing
e|----0--------0-------2------0------------0h 2p 0---------------------------------|
B|----2--------3-------3------2h 3p 2------3---------------------------------------|
G|----0--------0-------0------0------------0---------------------------------------|
D|----2--------0-------0------2------------0---------------------------------------|
A|----0--------x-------x------0------------x---------------------------------------|
E|-------------3-------3-------------------3---------------------------------------|

after singing stops, gets softer

e|---3------0------0----------------------------------------------2-------------|
B|---3------7------3----------------------------------------------3-------------|
G|---0------7------0----------------------------------------0-----2-------------|
D|---0------0------0---------2---4----2---4---2----0----0---0-----0-------------|
A|---2------5------x---------0---0----0---0---0----0----2-----------------------|
E|---3------7------3------------------------------------------------------------|

repeat first verse part
            
Hard to play? Try these video lessons and learn fast. | Correct




comments powered by Disqus
↑ Back to top | Tablatures and chords are parodies/interpretations of the original songs. You may use it for private study, scholarship, research or language learning purposes only