>
 >
How High The Moon

How High The Moon Guitar Tabs

Frank Sinatra - How High The Moon chords, tabs, tablatures, lyrics

Guitar lessons | Add/correct | Request | Top 50 tabs Artists:  A B C D E F G H I J K L M N O P Q R S T U V W X Y Z 0-9

How High The Moon Guitar Tabs – Frank Sinatra

CD, Sheet music, Poster

Do you like How High The Moon? Share with your friends now
Tabs

Tuning: EADGBE  Time Signature: 4/4


|----------------3-------5--------||5---------------7----------------|
|--------3---------------4--------||4---------------7----------------|
|------------------------5--------||5---------------7----------------|
|------------------------4--------||4---------------5----------------|
|---------------------------------||---------------------------------|
|---------------------------------||---------------------------------|

Gm7
|-----------------3-------5--------|-6--------------------------------|
|---------3------------------------|-------------------------6--------|
|----------------------------------|---------7------------------------|
|----------------------------------|-----------------5----------------|
|----------------------------------|----------------------------------|
|----------------------------------|----------------------------------|


|-----------------1-------3--------|-3---------------5----------------|
|-5-------1---------------2--------|-2---------------5----------------|
|-------------------------3--------|-3---------------5----------------|
|-------------------------2--------|-2---------------3----------------|
|----------------------------------|----------------------------------|
|----------------------------------|----------------------------------|
Fm7
|-----------------1-------3--------|-4--------------------------------|
|---------1------------------------|-------------------------4--------|
|----------------------------------|---------5------------------------|
|----------------------------------|-----------------3----------------|
|----------------------------------|----------------------------------|
|----------------------------------|----------------------------------|


|---------1-------1-------1--------|-3-----3-------3-----2h--3--------|
|-3-------3-------4----------------|-3-----3-------3------------------|
|---------1-------1----------------|-3-----3-------3------------------|
|---------3-------3----------------|-1-----1-------1------------------|
|---------1-------1----------------|----------------------------------|
|----------------------------------|----------------------------------|


|-5-----5-------5-----3h--5--------|-7--------------------------------|
|-4-----4-------4------------------|-7-----------------------7--------|
|-5-----5-------5------------------|-7---------------7----------------|
|-4-----4-------4------------------|-5-------5------------------------|
|----------------------------------|----------------------------------|
|----------------------------------|----------------------------------|


|-7-------5-------7-------8--------|-10--------------10---------------|
|-7--------------------------------|-10--------------10---------------|
|-7--------------------------------|-11--------------11---------------|
|-5--------------------------------|-9---------------9----------------|
|----------------------------------|----------------------------------|
|----------------------------------|----------------------------------|
(on repeat got to measure16)
|-10--------------10--------------||---------10------10----10---------|
|-9---------------9---------------||---------8-------8-----8----------|
|-10--------------10--------------||---------8-------7-----8----------|
|-8---------------8---------------||---------8-------8-----8----------|
|---------------------------------||----------------------------------|
|---------------------------------||----------------------------------|
Repeat from measure 2
|-10--------------3-------5-------||---------10--------8---7----------|
|-7-------3---------------4-------||---------8---------8---7----------|
|-8-----------------------5-------||---------8---------8---7----------|
|-7-----------------------4-------||---------8------------------------|
|---------------------------------||----------------------------------|
|---------------------------------||----------------------------------|


|-3---------------3---------------||----------------------------------|
|-3---------------3---------------||---------3-5-----3-------5--------|
|-4---------------4---------------||-3-4------------------------------|
|-5---------------5---------------||----------------------------------|
|-5---------------5---------------||----------------------------------|
|---------------------------------||----------------------------------|

 |
|-3--------------------------------|----------------------------------|
|---------5-------3---5------------|---------3-5-----3-------5--------|
|----------------------------------|-3-4------------------------------|
|----------------------------------|----------------------------------|
|----------------------------------|----------------------------------|
|----------------------------------|----------------------------------|


|-7-----6-------5------------------|----------------------------------|
|-7-----6-------5------------------|---------1-3-----1-------3--------|
|-7-----6-------5------------------|-1-2------------------------------|
|-7-----6-------5------------------|----------------------------------|
|----------------------------------|----------------------------------|
|----------------------------------|----------------------------------|


|-1--------------------------------|----------------------------------|
|---------3-------1---3------------|---------1-3-----1-------3--------|
|----------------------------------|-1-2------------------------------|
|----------------------------------|----------------------------------|
|----------------------------------|----------------------------------|
|----------------------------------|----------------------------------|


|-5-----4-------3------------------|---------3------------------------|
|-5-----4-------3------------------|---------4------------------------|
|-5-----4-------3------------------|---------3------------------------|
|-5-----4-------3------------------|---------5------------------------|
|----------------------------------|-3--------------------------------|
|----------------------------------|----------------------------------|


|---------5------------------------|----------------------------------|
|---------6------------------------|-------------------------8--------|
|---------5------------------------|-----------------7----------------|
|---------7------------------------|---------8------------------------|
|-5--------------------------------|-6--------------------------------|
|----------------------------------|----------------------------------|


|-6--------------------------------|----------------------------------|
|----------------------------------|----------------------------------|
|-------------------------0h--2h---|-3-------2-------0----------------|
|----------------------------------|-------------------------3p-------|
|----------------------------------|----------------------------------|
|----------------------------------|----------------------------------|


|----------------------------------|---------0-------0-------0--------|
|----------------------------------|---------0-------0-------0--------|
|----------------------------------|---------5-------5-------5--------|
|-0--------------------------------|---------5-------5-------5--------|
|---------3-------1-------3--------|-5-------5-------5-------5--------|
|----------------------------------|----------------------------------|


|-----------------3-------5--------|-5---------------7----------------|
|-3-------3-------3-------4--------|-4---------------7----------------|
|-5-------5-------5-------5--------|-5---------------7----------------|
|-4-------4-------4-------4--------|-4---------------5----------------|
|-5-------5------------------------|----------------------------------|
|----------------------------------|----------------------------------|


|-----------------3-------5--------|-6--------------------------------|
|---------3------------------------|-------------------------6--------|
|----------------------------------|---------7------------------------|
|----------------------------------|-----------------5----------------|
|----------------------------------|----------------------------------|
|----------------------------------|----------------------------------|

 |
|-----------------1-------3--------|-3---------------5----------------|
|-5-------1---------------2--------|-2---------------5----------------|
|-------------------------3--------|-3---------------5----------------|
|-------------------------2--------|-2---------------3----------------|
|----------------------------------|----------------------------------|
|----------------------------------|----------------------------------|

 |
|-----------------1-------3--------|-4--------------------------------|
|---------1------------------------|-------------------------4--------|
|----------------------------------|---------5------------------------|
|----------------------------------|-----------------3----------------|
|----------------------------------|----------------------------------|
|----------------------------------|----------------------------------|


|-------------------------1--------|-3-----3-------3-----2h--3--------|
|-3-------3-------4----------------|-3-----3-------3------------------|
|----------------------------------|-3-----3-------3------------------|
|----------------------------------|-1-----1-------1------------------|
|----------------------------------|----------------------------------|
|----------------------------------|----------------------------------|


|-5-----5-------5-----3h--5--------|-7--------------------------------|
|-4-----4-------4------------------|-7--------------------------------|
|-5-----5-------5------------------|-7--------------------------------|
|-4-----4-------4------------------|-5--------------------------------|
|----------------------------------|----------------------------------|
|----------------------------------|----------------------------------|

  |
|---------5-------7-------8--------|-10--------------10---------------|
|----------------------------------|-10--------------10---------------|
|----------------------------------|-11--------------11---------------|
|----------------------------------|-9---------------9----------------|
|----------------------------------|----------------------------------|
|----------------------------------|----------------------------------|


|-10--------------10---------------|---------10--------8---7----------|
|-9---------------9----------------|---------8------------------------|
|-10--------------10---------------|---------8------------------------|
|-8---------------8----------------|---------8------------------------|
|----------------------------------|----------------------------------|
|----------------------------------|----------------------------------|


|---3---------------3--------------|----------------------------------|
|---3---------------3--------------|---------3-5-----3-------5--------|
|---4---------------4--------------|-3-4------------------------------|
|---5---------------5--------------|----------------------------------|
|---5---------------5--------------|----------------------------------|
|----------------------------------|----------------------------------|
slide
|-3-----------------------5/-------|-7-----7---------6-----6----------|
|---------5-------3-------5/-------|-7-----7---------6-----6----------|
|-------------------------5/-------|-7-----7---------6-----6----------|
|-------------------------5/-------|-7-----7---------6-----6----------|
|----------------------------------|----------------------------------|
|----------------------------------|----------------------------------|


|-5---------------3----------------|----------------------------------|
|-5-------1-------3----------------|-------------------------0--------|
|-5-------5-------4----------------|-----------------5----------------|
|-5-------4-------5----------------|---------5------------------------|
|---------5-------5----------------|-5--------------------------------|
|----------------------------------|----------------------------------|


|-0--------------------------------|-7-------5-------3----------------|
|----------------------------------|-7-------5-------3----------------|
|----------------------------------|----------------------------------|
|----------------------------------|----------------------------------|
|----------------------------------|----------------------------------|
|----------------------------------|-------------------------3--------|


|----------------------------------|----------------------------------|
|-3--------------------------------|----------------------------------|
|-4--------------------------------|----------------------------------|
|-4--------------------------------|----------------------------------|
|----------------------------------|----------------------------------|
|----------------------------------|----------------------------------|





Comments


Popular Frank Sinatra tabs & chords
Lady Is A Tramp Chords
My Way 1 Chords
My Way 5 Chords
One For My Baby Chords
The Way You Look Tonight 1 Chords
This Love Of Mine Chords
Girl From Ipanema Tabs
East Of The Sun Ukulele
It Had To Be You Ukulele
The Very Thought Of You Ukulele


Song lyrics



↑ Back to top | Tablatures and chords are parodies/interpretations of the original songs. You may use it for private study, scholarship, research or language learning purposes only
© 2014 AZChords.com Contact us | Privacy policy | DMCA | Add/correct tabs | Request tabs | Top 50 tabs