>
 >
Moon River

Moon River Guitar Tabs

Frank Sinatra - Moon River chords, tabs, tablatures, lyrics

Guitar lessons | Add/correct | Request | Top 50 tabs Artists:  A B C D E F G H I J K L M N O P Q R S T U V W X Y Z 0-9

Moon River Guitar Tabs – Frank Sinatra

CD, Sheet music, Poster

Do you like Moon River? Share with your friends now
Tabs

Arranged by Tony Crowley
Hold and play out of chord shapes where possible

 | CM7   |       |        A7sus4  Am7     |        CM7sus4 |   Dsus4 G7sus4 
|3-----------------------|10------8---------------|7-----------5---3---1---|
|5-----------------------|8-------8---------------|6---------------3---1---|
|4-----------------------|9-------9---------------|5---------------2---0---|
|5-----------------------|7-------7---------------|5---------------0---0---|
|3-----------------------|------------------------|5-----------------------|
|------------------------|------------------------|------------------------|
 
 CM7     |       |        CM7sus4 |   Dsus4 G7sus4 CM7     |       |        
|3-----------------------|7-----------5---3---1---|3-----------------------|
|5---------------1-------|6---------------3---1---|5---------------1-------|
|4-----------------------|5---------------2---0---|4-----------------------|
|5-----------------------|5---------------0---0---|5-----------------------|
|3-----------------------|5-----------------------|3-----------------------|
|------------------------|------------------------|------------------------|
 
 Bm7b5   |       |        E7      |       |        Am      |       |  
           
|------------------------|----------------0-------|------------------------|
|3---------------3-------|3---------------3-------|1-----------------------|
|--------2---------------|--------1-------1-------|2-----------------------|
|----3-------------------|----2-------------------|2-----------------------|
|2-----------------------|------------------------|0-----------------------|
|------------------------|0-----------------------|------------------------|
 
 C7      |       |        F       |       |        D7sus4b5|       |        
|3-----------------------|------------------------|------------------------|
|5-------5-----------3---|1-----------------------|8-------5-----------3---|
|3-----------------------|2-----------------------|5-----------------------|
|5-----------------------|3-----------------------|6-----------------------|
|3-----------------------|3-----------------------|5-----------------------|
|------------------------|------------------------|------------------------|
 
 Am      |       G6       Am7     |       |        Gm7b5   |       |        
|--------0-------3-------|8-------7-------5-------|7-------5-------3-------|
|1---------------5-------|8-----------------------|7-----------------------|
|2---------------4-------|9-----------------------|6-----------------------|
|2---------------5-------|7-----------------------|5-----------------------|
|0-----------------------|------------------------|------------------------|
|------------------------|------------------------|------------------------|
 
 Dm7     |       Gaug7    | CM7   |       |        A7sus4  Am7     |        
|5---------------3-------|3-----------------------|10------8---------------|
|6---------------4-------|5-----------------------|8-------8---------------|
|5---------------4-------|4-----------------------|9-------9---------------|
|7---------------3-------|5-----------------------|7-------7---------------|
|5-----------------------|3-----------------------|------------------------|
|----------------3-------|------------------------|------------------------|
 
 CM7sus4 |   Dsus4 G7sus4 CM7     |       |        CM7sus4 |   Dsus4 G7sus4 
|7-----------5---3---1---|3-----------------------|7-----------5---3---1---|
|6---------------3---1---|5---------------1-------|6---------------3---1---|
|5---------------2---0---|4-----------------------|5---------------2---0---|
|5---------------0---0---|5-----------------------|5---------------0---0---|
|5-----------------------|3-----------------------|5-----------------------|
|------------------------|------------------------|------------------------|
 
 CM7     |       |        Bm7b5   |       |        E7
     |       |        
|3-----------------------|------------------------|----------------0-------|
|5---------------1-------|3---------------3-------|----------------3-------|
|4-----------------------|--------2---------------|--------1-------1-------|
|5-----------------------|----3-------------------|----2-------------------|
|3-----------------------|2-----------------------|------------------------|
|------------------------|------------------------|0-----------------------|
 
 Am      |       |        E+6     |       |        Fm7     |       |        
|------------------------|0---------------3-------|8-----------------------|
|1-----------------------|1-----------------------|9-----------------------|
|2-----------------------|1-----------------------|8-----------------------|
|2-----------------------|2-----------------------|10----------------------|
|0-----------------------|------------------------|8-----------------------|
|------------------------|------------------------|------------------------|
 
 |       |       |        CM7     |       |        |   CMsus4    D7b5  Dm7  
|--------10------8-------|3-----------------------|--------7---5-----------|
|----------------9-------|5-----------------------|--------6-------8---6---|
|----------------8-------|4-----------------------|--------5-------5---5---|
|----------------10------|5-----------------------|--------5-------7---7---|
|----------------8-------|3-----------------------|----------------5---5---|
|------------------------|------------------------|------------------------|
 
 CM7     |       |        |   CMsus4  D7b5|   Dm7  CM7     |       |        
|3-----------------------|--------7---5-----------|3-----------------------|
|5-----------------------|----1---6-------8---6---|5-----------------------|
|4-----------------------|--------5-------5---5---|4-----------------------|
|5-----------------------|--------5-------7---7---|5-----------------------|
|3-----------------------|----------------5---5---|3-----------------------|
|------------------------|------------------------|------------------------|
 
 Am7     |       |        Dm7     G7      |        |       |       G7       
|------------------------|1-----------------------|----------------0-------|
|1-----------------------|1-------3---------------|----------------0-------|
|0-----------------------|2-------0---------------|----------------0-------|
|2-----------------------|0-------3---------------|----------------3-------|
|0-----------------------|------------------------|------------------------|
|------------------------|--------3---------------|------------------------|
 
 C       |       |        |       |       |        
|------------------------|------------------------|
|1-----------------------|------------------------|
|0-----------------------|------------------------|
|2-----------------------|------------------------|
|3-----------------------|------------------------|
|------------------------|------------------------|
 





Comments


Popular Frank Sinatra tabs & chords
I'll Be Seeing You Chords
Ive Got The World On A String 2 Chords
New York New York 1 Chords
Taking A Chance On Love Chords
Two Sleepy People Chords
Fly Me To The Moon 1 Tabs
Night And Day Tabs
Summer Wind Ukulele
The Very Thought Of You Ukulele
Young At Heart Ukulele


Song lyrics



↑ Back to top | Tablatures and chords are parodies/interpretations of the original songs. You may use it for private study, scholarship, research or language learning purposes only
© 2014 AZChords.com Contact us | Privacy policy | DMCA | Add/correct tabs | Request tabs | Top 50 tabs