» » »

Francis M, Kaleidoscope World Tabs (ver.1)

Artists:  A B C D E F G H I J K L M N O P Q R S T U V W X Y Z # 

Kaleidoscope World Tabs (ver.1)

Francis M Tabs
4.7/5 (12 votes)
Kaleidoscope World lessons Tabs too difficult? Try these video lessons and learn fast
                Francis M.

Intro Riff:

e |----------10/12--10-----------------------------------|
B |----------10/12--10---10/12--10------8\---------------|
G |----------------------9 /11--9-------7\---------------|
D |---------------------------------7h9------------------|
A |-----------------------------------------5h7p5/2------|
E |-12///0-----------------------------------------------|

    G       Am          Bm    Am
e |------------------------------------------------------|
B |------------------------7------5----------------------|
G |------------------------7------5----------------------|
D |---3h4p3------5h7p5-----9------7----------------------|
A |------------------------------------------------------|
E |-3--------5-5---------7----5-5------------------------|

e |---8h10----------------10---15/17--15-----12--10------|
e |-8------10--8-10-10/12-----------------12-------------|
e |------------------------------------------------------|
e |------------------------------------------------------|
e |------------------------------------------------------|
e |------------------------------------------------------|

Verse I
G             Am
So many faces, so many races
Bm              Am
Diffrent voices, different choices
G                 Am
Some are mad while others laugh
Bm                  C
Some live alone with no better half
G                  Am
Others greed while others curse
Bm                         Am
And others mourn behind the big black purse
G                      Am
And some are pure, and some half-bred
Bm                     C
And some are sober and some are wasted
G              Am
Some are rich because of faith
Bm                        Am
And some are poor with no food on their plate
G                    Am
Some stand out, while others blend
Bm                          C
Some are fat and stout while some are thin
G                         Am
And some are friends, and some are foes
Bm                    C         D
Some have some, while some have most

      G           D
Every color every hue
   Bm             C
Is represented by me and you
        G            D
Take a slide in the slope
Bm                   C
Take a look at the kaleidoscope
        G              D
Make it round, make it twirl
In this kaleidescope world

Verse II
(Do verse I chord pattern)
Some are great and some are few
Others lie while some tell the truth
And some say poem, and some do sing
And other sing through their guitar strings
Some know it all while some act dumb
Let the bassline strum to the bang of the drum
Some can swim while some will sink
SOme will find their minds and think
Others walk, while others run
You can't talk peace and have gun
Some are hurt and start to cry
Don't ask me how don't ask me how
G                         Am
And some are friends, and some are foes
Bm                    C         D
Some have some, while some have most

(Repeat Chorus except last word)

Kaleidoscope world
In this kaleidoscope world

Adlib: G-Am-Bm-C-(10x);
Submit corrections

comments powered by Disqus
↑ Back to top | Francis M Tabs for Kaleidoscope World. Lyrics for acoustic guitar and electric guitar. Tablatures and chords are parodies/interpretations of the original songs. You may use it for private study, scholarship, research or language learning purposes only