» » »

Kabataan Para Sa Kinabukasan Tabs (ver.1)

Artists:  A B C D E F G H I J K L M N O P Q R S T U V W X Y Z # 

Kabataan Para Sa Kinabukasan Tabs (ver.1)

Francis M
Rating:
0/5 (0 votes)

Hard to play? Try these video lessons and learn fast.
                Song Title: Kabataan para sa kinabukasan

Sorry not 100% correct, there are no available tab for this song so I decided to make one
For any correction or question please don't hesitate to contact me,
If you get confused can't read it i'll be posting a video soon..
This is for my former band in PUP-STE...And for the Master Rapper Francis M. Godspeed!

Legend:

h       = hammer on
p       = pull off
b       = bend
b'      = bend (hold)
'       = Hold
\/      = slide
~       = vibrate
Tr      = Tremulo

Standard Tunning

Intro:

e|---------------------------------------------------------------------------------------|
B|-------------------------------------------------15------------13~-12h13p12------------|
G|-14b'14p12-14-14b-12~-----12-14-12-14b(14)p12-14b'-14b(14)-12--------------14h16p14----|
D|----------------------/14--------------------------------------------------------------|
A|---------------------------------------------------------------------------------------|
E|---------------------------------------------------------------------------------------|


e|--------------------------------------------------------------------------------------|
B|-------------------------------------------------15------------13~--------------------|
G|-12-14b'p12-14-14b12~-----12-14-12-14b(14)p12-14b'--14b(14)-12-14~--------------------|
D|----------------------/14-------------------------------------------------------------|
A|--------------------------------------------------------------------------------------|
E|--------------------------------------------------------------------------------------|

1st Verse:

e|-------------------------||-----------------------------------------------------------|
B|-------------------------||-----------------------------------------------------------|
G|------7-9---Repeat (8X)--||-----------------------------------------------------------|
D|-9-9--5-7----------------||-----------------------------------------------------------|
A|-7-7---------------------||-----------------------------------------------------------|
E|-------------------------||-----------------------------------------------------------|

Kapag ang tao'y masipag, tumatatag and buhay
nagsusumikap kahit mahirap, ialay
ang pawis sa kinabukasan,
at nang tayong lahat ma-biyayaan, at huwag kalilimutan
at laging tandaan ang hagdang
paitaas ang siyang laging tahakin,
anuman ang iyong gawin,
kahit yun at yun din, gawin mong magaling at sa
puso'y manggaling

e|----------------------------------------------------------|
B|----------------------------------------------------------|
G|-/12-11h12-9-11-12----------------------------------------|
D|----------------------------------------------------------|
A|----------------------------------------------------------|
E|----------------------------------------------------------|

Chorus:

Just listen to the song for strumming...
There are some tremulo in chorus so look for that timming and bend it...

   G    D    F    C                 G    D    F(Hold)

e|-3----2----1----0-----------------3----2----1~----------------------------------------|
e|-3----3----1----1-----------------3----3----1~----------------------------------------|
e|-0----2----2----0---Repeat (3X)---0----2----2~----------------------------------------|
e|-0---------3----2-----------------0---------3~----------------------------------------|
e|-2---------3----3-----------------2---------3~----------------------------------------|
e|-3---------1----------------------3---------1~----------------------------------------|

Nasa palad mo ang kapalaran
kabataan para sa kinabukasan
oras ay ginto, gamitin ng mahusay
dahil ang oras ay walang hinihintay

Refrain:

e|-------------------------||-----------------------------------------------------------|
B|-------------------------||-----------------------------------------------------------|
G|------7-9---Repeat (3X)--||-----------------------------------------------------------|
D|-9-9--5-7----------------||-----------------------------------------------------------|
A|-7-7---------------------||-----------------------------------------------------------|
E|-------------------------||-----------------------------------------------------------|
e|-------------------------||-----------------------------------------------------------|

Peace - kapayapaan
Nature - kalikasan
Children - kabataan

2nd Verse

e|--------------------------||-----------------------------------------------------------|
B|--------------------------||-----------------------------------------------------------|
G|------7-9---Repeat (13X)--||--/12-11h12-9-11-12----------------------------------------|
D|-9-9--5-7-----------------||-----------------------------------------------------------|
A|-7-7----------------------||-----------------------------------------------------------|
E|--------------------------||-----------------------------------------------------------|
e|--------------------------||-----------------------------------------------------------|

Kabataan, kalikasan para sa kinabukasan
iwasan ang pagkakamaling ating naranasan
oras nang magtubos, daig natin 'wag sayangin,
'wag hayaang maubos
oras na para kumilos (make a stand)
magkapit bisig para sa daigdig (hand in hand)
mulat na kabataan ang sagot
'wag masasangkot sa pinagbabawal na gamot
kundi'y gamitin ang talino,
maging tunay na bayani, makabagong Pilipino
sulong kabataan, ipakita ang lakas,
tunay at wagas na pag-asa ng bukas

Repeat Chorus:

Adlib:

e|-----------------------|----------------------------------------------------------------|
B|-----------10-10p8---8-|-------13h15-15b'15'15'15'15'15'-15b-12-----12----0~------------|
G|-9-9p7---7---------9---|-14h15----------------------------------14b'--14'-0~------------|
D|-------9---------------|----------------------------------------------------------------|
A|-----------------------|----------------------------------------------------------------|
E|-----------------------|----------------------------------------------------------------|

e|-----------------------------------/16-15-11--------------------------------------------|
B|---------------------------------------------15-12-----15-----------------12~-----------|
G|-14b-12-12-14b-12-12-14/16-14~-12~-----------------14b'--14'-12-14-12--/12--------------|
D|----------------------------------------------------------------------------------------|
A|----------------------------------------------------------------------------------------|
E|----------------------------------------------------------------------------------------|


e|----------------------------------------------------------------------------------------|
B|-----15---------------------------------------------------------------------------------|
G|-14b'--14'-------12h14-14-14~\Tr--------------------------------------------------------|
D|-----------12h14------------------------------------------------------------------------|
A|----------------------------------------------------------------------------------------|
E|----------------------------------------------------------------------------------------|


e|-14-12-10----------10-12-14-12-10---------10-12-15-12-10----------10-12-15-12-10--------|
B|----------12-10h12----------------12-10h12---------------12-10h12-----------------------|
G|----------------------------------------------------------------------------------------|
D|----------------------------------------------------------------------------------------|
A|----------------------------------------------------------------------------------------|
E|----------------------------------------------------------------------------------------|


e|----------10-12-14-12-10----------10-12-14-12-10----------10-12-14/15-14----------------|
B|-12-10h12----------------12-10h12----------------12-10h12----------------15~------------|
G|----------------------------------------------------------------------------------------|
D|----------------------------------------------------------------------------------------|
A|----------------------------------------------------------------------------------------|
E|----------------------------------------------------------------------------------------|

(Repeat Chorus in clean tone)

Nasa palad mo ang kapalaran

kabataan para sa kinabukasan
oras ay ginto, gamitin ng mahusay
dahil ang oras ay walang hinihintay
            
Hard to play? Try these video lessons and learn fast. | Correct




comments powered by Disqus
↑ Back to top | Tablatures and chords are parodies/interpretations of the original songs. You may use it for private study, scholarship, research or language learning purposes only