» » »

Firecracker Tabs (ver.1)

Artists:  A B C D E F G H I J K L M N O P Q R S T U V W X Y Z # 

Firecracker Tabs (ver.1)

Four Letter Lie
Rating:
4/5 (6 votes)

Hard to play? Try these video lessons and learn fast.
                
   [intro]
eb|--x-------x-------x-------x-------|
Bb|--3-------3-------3-------3-------|
Gb|--0-------0-------0-------0-------|
Db|--4-------4-------4-------4-------|
Ab|--5-------0-------3-------3-------|
Db|--5-------0-------x-------x-------|

    sound, of forty hearts pounding along...
eb|---------------------------------------------------------------------|
Bb|----------3---------------3----------------3---------------3---------|
Gb|------0-----0---0-----0-----0---0------0-----0---0-----0-----0---0---|
Db|----4---4-----4-----4---4-----4------4---4-----4-----4---4-----4-----|
Ab|---------------------------------------------------------------------|
Db|--5---------------2----------------0---------------0-----------------|

eb|---------------------------------------------------------------------|
Bb|----------3---------------3----------------3---------------3---------|
Gb|------0-----0---0-----0-----0---0------0-----0---0-----0-----0---0---|
Db|----4---4-----4-----4---4-----4------4---4-----4-----4---4-----4-----|
Ab|---------------------------------------------------------------------|
Db|--5---------------2----------------0---------------0-----------------|

    meant what i said...
eb|--x----x----x----x----x----x----x----|
Bb|--3----3----3----3----3----3----3----|
Gb|--0----0----0----0----0----0----0----|
Db|--4----4----4----4----4----4----4----|
Ab|--5----5----5----5----5----5----5----|
Eb|--5----5----5----5----5----5----0----|

    black and white formal's got...
eb|----------------------------------------------------|
Bb|--------3-----------3-----------3-----------3-------|
Gb|------0---0-------0---0-------0---0-------0---0-----|
Db|----4-------4---4-------4---4-------4---4-------4---|
Ab|----------------------------------------------------|
Db|--5-----------5-----------0-----------0-------------|
   (2nd guitar same as intro)
eb|----------------------------------------------------|
Bb|--------3-----------3-----------3-----------3-------|
Gb|------0---0-------0---0-------0---0-------0---0-----|
Db|----4-------4---4-------4---4-------4---4-------4---|
Ab|--3-----------3-----------3-----------3-------------|
Eb|----------------------------------------------------|

eb|---------------------------------------------------------------------|
Bb|----------3---------------3----------------3---------------3---------|
Gb|------0-----0---0-----0-----0---0------0-----0---0-----0-----0---0---|
Db|----4---4-----4-----4---4-----4------4---4-----4-----4---4-----4-----|
Ab|---------------------------------------------------------------------|
Db|--5---------------2----------------0---------------0-----------------|

eb|---------------------------------------------------------------------|
Bb|----------3---------------3----------------3---------------3---------|
Gb|------0-----0---0-----0-----0---0------0-----0---0-----0-----0---0---|
Db|----4---4-----4-----4---4-----4------4---4-----4-----4---4-----4-----|
Ab|---------------------------------------------------------------------|
Db|--5---------------2----------------0---------------0-----------------|

    meant what i said...
eb|--x----x----x----x----x----x----x----|
Bb|--3----3----3----3----3----3----3----|
Gb|--0----0----0----0----0----0----0----|
Db|--4----4----4----4----4----4----4----|
Ab|--5----5----5----5----5----5----5----|
Eb|--5----5----5----5----5----5----0----|

    black and white formal's got...
eb|----------------------------------------------------|
Bb|--------3-----------3-----------3-----------3-------|
Gb|------0---0-------0---0-------0---0-------0---0-----|
Db|----4-------4---4-------4---4-------4---4-------4---|
Ab|----------------------------------------------------|
Db|--5-----------5-----------0-----------0-------------|
   (2nd guitar same as intro)
eb|----------------------------------------------------|
Bb|--------3-----------3-----------3-----------3-------|
Gb|------0---0-------0---0-------0---0-------0---0-----|
Db|----4-------4---4-------4---4-------4---4-------4---|
Ab|--3-----------3-----------3-----------3-------------|
Eb|----------------------------------------------------|


eb|--------------------------12^12^---\10---7p5p3h5----3p0----|
Bb|--8p5~\----8p5~--5--/12------------------------------------|
Gb|-----------------------------------------------------------|
Db|-----------------------------------------------------------|
Ab|-----------------------------------------------------------|
Eb|-----------------------------------------------------------|

eb|--15p12p10-12-10
Bb|--
Gb|-- (if anyone can figure out the rest of the solo e-mail me)
Db|--
Ab|--
Eb|--

eb|--------------------|
Bb|--------------------|
Gb|--/2~------0~-------|
Db|--------------------|
Ab|--------------------|
Eb|--------------------|

eb|--x-------x-------x-------x-------|
Bb|--3-------3-------3-------3-------|
Gb|--0-------0-------0-------0-------|
Db|--4-------4-------4-------4-------|
Ab|--5-------0-------3-------3-------|
Db|--5-------0-------x-------x-------|

    black and white formal's got...
eb|----------------------------------------------------|
Bb|--------3-----------3-----------3-----------3-------|
Gb|------0---0-------0---0-------0---0-------0---0-----|
Db|----4-------4---4-------4---4-------4---4-------4---|
Ab|----------------------------------------------------|
Db|--5-----------5-----------0-----------0-------------|
   (2nd guitar same as intro)
eb|----------------------------------------------------|
Bb|--------3-----------3-----------3-----------3-------|
Gb|------0---0-------0---0-------0---0-------0---0-----|
Db|----4-------4---4-------4---4-------4---4-------4---|
Ab|--3-----------3-----------3-----------3-------------|
Eb|----------------------------------------------------|

   [outro]
eb|--------------------------------------------------x-|
Bb|----------3--------------3----------------3-------3-|
Gb|------0-----0--------0-----0---0------0-----0-----0-|
Db|----4---4-----4----4---4-----4------4---4-----4---4-|
Ab|----------------------------------3---------------3-|
Db|--5--------------0--------------------------------x-|
            
Hard to play? Try these video lessons and learn fast. | Correct




comments powered by Disqus
↑ Back to top | Tablatures and chords are parodies/interpretations of the original songs. You may use it for private study, scholarship, research or language learning purposes only