» » »

Format, Pick Me Up Tabs (ver.1)

Artists:  A B C D E F G H I J K L M N O P Q R S T U V W X Y Z # 

Pick Me Up Tabs (ver.1)

Format Tabs
 Rating:
4.3/5 (6 votes)
Pick Me Up lessons Tabs too difficult? Try these video lessons and learn fast
1
                --0~--3~--0~---------------------|
--3~--3~--3~---------------------|
--2~--0~--2~--444444444----------|
--0~--0~--0~--555555555----------|
--0~--2~--0~--555555555----------|
------3~------333333333----------|

Verse
----------------------------|
-3--------------------------|
-4--4-7--9--4--6------------|
-4--5-7--9--5--7------------|
-2--5-5--7--5--7------------|
----3-------3--5------------|

Chorus
------------------33333------|
------------------33333------|
-7777777--4444444-33333------|
-7777777--5555555-55555------|
-5555555--5555555-55555------|
----------3333333-33333------|

Bridge
-------------------------------|
-------------------------------|
--77777777-4444444---7777777---|
--77777777-5555555---7777777---|
--55555555-5555555---5555555---|
-----------3333333-------------|

Thats it
            
Submit corrections

comments powered by Disqus
↑ Back to top | Format Tabs for Pick Me Up. Lyrics for acoustic guitar and electric guitar. 1 Tablatures and chords are parodies/interpretations of the original songs. You may use it for private study, scholarship, research or language learning purposes only