» » »

Format, A Save Situation Tabs (ver.1)

Artists:  A B C D E F G H I J K L M N O P Q R S T U V W X Y Z # 

A Save Situation Tabs (ver.1)

Format Tabs
Rating:
5/5 (5 votes)
A Save Situation lessons Tabs too difficult? Try these video lessons and learn fast
                ----------------------------------------------------------------------------
                             A Save Situation - The Format
----------------------------------------------------------------------------


Tuning:Standard
 

Verse:

e|----0------0-----0--------------|
B|----1------1-----1---3p1--------|
G|----0------0-----2---2---2------|
D|----2---0h2------2--------------| 2x
A|--3----3-----3-0---0-------0----|
E|--------------------------------|


Chorus:

e|----1------0------0-------------------|
B|----1------1------0-------------------|
G|----2------0------0-------------------|
D|--3----3-2----2-----------------------|
A|------------------------0h2-3-0-------|
E|----------------3-----3---------------|


Break:

e|---0----0------0----------------|
B|---1----1------1----------------|
G|---0----0------0--------0-------|
D|---2----2------2----0h2---2-----|
A|-3----0----0-3----3-------------|
E|------3-------------------------|


Repeat Verse  2x

Repeat Chorus 2x


Bridge:

e|---0---------------0----------------1------1------0-------------------|
B|---1---------------1----------------1------1------0-------------------|
G|---2--------0------0----------------2------2------0-------------------|
D|---2----0h2---2----2-------------------3-3----3-----------------------|
A|-0----0-----------------0h2-3--0-----------------------0h2-3-0--------|
E|-----------------3----3-----------1-------------3----3----------------|

    ( Not sure about the last part so I play this \/\/ )        
              
e|---0---------------0----------------1------1-----3-1-0----------------|
B|---1---------------1----------------1------1-----0-0-0-3-1-0-3-1------|
G|---2--------0------0----------------2------2-----0-0-0-0-0-0-0-0------|
D|---2----0h2---2----2-------------------3-3----3--0-0-0-0-0-0-0-0------|
A|-0----0-----------------0h2-3--0-----------------2-2-2-2-2-2-2--------|
E|-----------------3----3-----------1------------- 3-3-3-3-3-3-3--------|

Repeat Verse  2x

Repeat Chorus 2x

Play Break    1x
 
End.



It's not perfect but I think it's pretty close.






| /  slide up
| \  slide down
| h  hammer-on
| p  pull-off
| ~  vibrato
| +  harmonic
| x  Mute note
===============================================================================
            
Submit corrections

comments powered by Disqus
↑ Back to top | Format Tabs for A Save Situation. Lyrics for acoustic guitar and electric guitar. Tablatures and chords are parodies/interpretations of the original songs. You may use it for private study, scholarship, research or language learning purposes only