>
 >
A Tua Imagem

A Tua Imagem Guitar Tabs

Fonzie - A Tua Imagem chords, tabs, tablatures, lyrics

Guitar lessons | Add/correct | Request | Top 50 tabs Artists:  A B C D E F G H I J K L M N O P Q R S T U V W X Y Z 0-9

A Tua Imagem Guitar Tabs – Fonzie

CD, Sheet music, Poster

Do you like A Tua Imagem? Share with your friends now
TabsTabs v2
É a minha primeira tab, por isso podem faltar coisas. Acredito que algumas partes estão 
(ritmo), mas quanto aos solos nada prometo.


Intro

Guitarra 1
                       (wha-wha)
|------------------------------|
|------------------------------|
|------------------------------|
|------------------------------|
|------------------------------|
|--4-4-6--4-4-6--4-4-6--4-4-6--|


Guitarra 2
                (saída)
|------------------------------|---------------------|
|------------------------------|---------------------|
|------------------------------|--6------------------|
|--6-6-8--6-6-8--6-8-8^9^8-----|----9-8-6--9-8-6-----|
|------------------------------|-----------------9---|
|------------------------------|---------------------|


Solo (início - repetir as vezes necessárias)

|----------------------------------------------------------------------|
|----------------------------------------------------------------------|
|----------------------------------------------------------------------|
|----------------------------------------------------------------------|
|---------------8-6-8--8^9^8---11^9^8--8~---8^9^8--8-------------------|
|-9-8-6~--6~-8-9--------------------------------------9-8-8-9-11-9--8~-|


Ritmo 1

|----------------------------------------------------------------------|
|----------------------------------------------------------------------|
|----------------------------------------------------------------------|
|----------------------------------------------------------------------|
|----8---8---8-8^9^8------8---8---8--8-9^11^9---------8---8--8-8^8^9---|
|--66--66--66-----------66--66--66------------------99--99--9----------|


|----------------------------|
|----------------------------|
|----------------------------|
|--6-6-6-6--3-3-3-3--6-6-6-6-|
|--6-6-6-6--3-3-3-3--6-6-6-6-|
|--4-4-4-4--1-1-1-1--4-4-4-4-|

|----------------------------------------------------------------------|
|----------------------------------------------------------------------|
|----------------------------------------------------------------------|
|----------------------------------------------------------------------|
|----8---8---8-8^9^8------8---8---8--8-9^11^9^8-------8---8--8-8^8^9---|
|--66--66--66-----------66--66--66------------------99--99--9----------|


|----------------------------|
|----------------------------|
|----------------------------|
|--6-6-6-6--3-3-3-3--6-6-6-6-|
|--6-6-6-6--3-3-3-3--6-6-6-6-|
|--4-4-4-4--1-1-1-1--4-4-4-4-|

Brigde para o Refrão
                                    (3x)
|--------------------------------------|
|--------------------------------------|
|--------------------------------------|
|--4-4-4-4--6-6-6-6---8-8-8-8-8-8-8-8--|
|--4-4-4-4--6-6-6-6---8-8-8-8-8-8-8-8--|
|--2-2-2-2--4-4-4-4---6-6-6-6-6-6-6-6--|


|--------------------------------------|
|--------------------------------------|
|--------------------------------------|
|--4-4-4-4----6------------------------|
|--4-4-4-4----6------------------------|
|--2-2-2-2----4------------------------|

Refrão
                                                                       (2x)
|-------------------------------------------------------------------------|
|-------------------------------------------------------------------------|
|----------------------------------------6-6-6-6-6-6-6--------------------|
|--8-8-8-8-8-8-8-8-8---4-4-4-4-4-4-4-4---6-6-6-6-6-6-6---6-6-6-6-6-6-6-6--|
|--8-8-8-8-8-8-8-8-8---4-4-4-4-4-4-4-4---4-4-4-4-4-4-4---6-6-6-6-6-6-6-6--|
|--6-6-6-6-6-6-6-6-6---2-2-2-2-2-2-2-2-------------------4-4-4-4-4-4-4-4--|

Solo (início - repetir as vezes necessárias)

|----------------------------------------------------------------------|
|----------------------------------------------------------------------|
|----------------------------------------------------------------------|
|----------------------------------------------------------------------|
|---------------8-6-8--8^9^8---11^9^8--8~---8^9^8--8-------------------|
|-9-8-6~--6~-8-9--------------------------------------9-8-8-9-11-9--8~-|

Ritmo 1

|----------------------------------------------------------------------|
|----------------------------------------------------------------------|
|----------------------------------------------------------------------|
|----------------------------------------------------------------------|
|----8---8---8-8^9^8------8---8---8----9^11^9^8-------8---8--8-8^8^9---|
|--66--66--66-----------66--66--66------------------99--99--9----------|


|----------------------------|
|----------------------------|
|----------------------------|
|--6-6-6-6--3-3-3-3--6-6-6-6-|
|--6-6-6-6--3-3-3-3--6-6-6-6-|
|--4-4-4-4--1-1-1-1--4-4-4-4-|

Brigde para o Refrão
                                    (3x)
|--------------------------------------|
|--------------------------------------|
|--------------------------------------|
|--4-4-4-4--6-6-6-6---8-8-8-8-8-8-8-8--|
|--4-4-4-4--6-6-6-6---8-8-8-8-8-8-8-8--|
|--2-2-2-2--4-4-4-4---6-6-6-6-6-6-6-6--|


|--------------------------------------|
|--------------------------------------|
|--------------------------------------|
|--4-4-4-4----6------------------------|
|--4-4-4-4----6------------------------|
|--2-2-2-2----4------------------------|

Refrão
                                                                      (2x)
|------------------------------------------------------------------------|
|------------------------------------------------------------------------|
|---------------------------------------6-6-6-6-6-6-6--------------------|
|--8-8-8-8-8-8-8-8----4-4-4-4-4-4-4-4---6-6-6-6-6-6-6---6-6-6-6-6-6-6-6--|
|--8-8-8-8-8-8-8-8----4-4-4-4-4-4-4-4---4-4-4-4-4-4-4---6-6-6-6-6-6-6-6--|
|--6-6-6-6-6-6-6-6----2-2-2-2-2-2-2-2-------------------4-4-4-4-4-4-4-4--|


Ritmo 2

|-------------------------------------------------------------------------|
|-------------------------------------------------------------------------|
|------------------------------------3-3-3-3-3-3-3-3---6-6-6-6-6-6-6-6----|
|--4-4-4-4-4-4-4-4--3-3-3-3-3-3-3-3--3-3-3-3-3-3-3-3---6-6-6-6-6-6-6-6----|
|--4-4-4-4-4-4-4-4--3-3-3-3-3-3-3-3--1-1-1-1-1-1-1-1---4-4-4-4-4-4-4-4----|
|--2-2-2-2-2-2-2-2--1-1-1-1-1-1-1-1---------------------------------------|


Solo
                                                      (2x)
|---------------------------------------------------------|----------------|
|---------------------------------------------------------|----------------|
|---------------------------------------------------------|----------------|
|---------------------------------------------------------|----------------|
|-11^9^8-8~-8~--11^9^8-------11^8^9-8~-8~--11^9^8---------|----------------|
|---------------------9~-9~----------------------9-8-9-11-|--9-8-9-11-9-8~-|
                                                (Não tocar
                                               da última vez)


-------> Break com a bateria <--------

Refrão
                                                                     (2x)
|------------------------------------------------------------------------|
|------------------------------------------------------------------------|
|---------------------------------------6-6-6-6-6-6-6--------------------|
|--8-8-8-8-8-8-8-8----4-4-4-4-4-4-4-4---6-6-6-6-6-6-6---6-6-6-6-6-6-6-6--|
|--8-8-8-8-8-8-8-8----4-4-4-4-4-4-4-4---4-4-4-4-4-4-4---6-6-6-6-6-6-6-6--|
|--6-6-6-6-6-6-6-6----2-2-2-2-2-2-2-2-------------------4-4-4-4-4-4-4-4--|


Fim

|------------------------------|
|------------------------------|
|------------------------------|
|------------------------------|
|------------------------------|
|--4-6-6--4-6-6--4-6-6--4-6-6--|





Comments


Popular Fonzie tabs & chords
A Tua Imagem 1 Tabs
Crashin Down Tabs
Crashing Down Tabs
Gotta Get Away Tabs
Secret Spot Tabs


Song lyrics



↑ Back to top | Tablatures and chords are parodies/interpretations of the original songs. You may use it for private study, scholarship, research or language learning purposes only
© 2014 AZChords.com Contact us | Privacy policy | DMCA | Add/correct tabs | Request tabs | Top 50 tabs