» » »

Tron Bass tabs (ver.3)

Artists:  A B C D E F G H I J K L M N O P Q R S T U V W X Y Z # 

Tron Bass tabs (ver.3)

Foals
Rating:
0/5 (0 votes)

Hard to play? Try these video lessons and learn fast.
                Foals - Tron
Great band. Great album. Great song. Great tab!! :)


0:13 - 1:11
G|----------------------------------------------|
D|-1212-1212-1212-1212--------------------------|
A|---------------------1313-1313-1515-1515------|
E|----------------------------------------------|

1:11 - 1:36
G|------------1212---1212-12--------------------|
D|-1212-12--15-----15---------------------------|
A|----------------------------------------------|
E|----------------------------------------------| (x4) 

1:37 - 2:02
G|-----------------------------------------------|---|
D|-12(x16)---------------------------------------|   |
A|--------13(x16)------------1515151515----------|   |
E|-------------------13131313--------------------|   |
                                                     |x2 
G|-----------------------------------------------|   |
D|-12121212121212---------------15151515---------|   |
A|---------------13131313131313---------15151515-|   |
E|-----------------------------------------------|---|

2:03 - ?:??
G|---------------|
D|-12-12-1212----|
A|---------------|
E|---------------| then (it's quite tricky to get the change, just listen to it)

?:?? - 2:31
G|----------------------------------------------|
D|-12-12-1212-12-12-1212------------------------|
A|-----------------------13-13-1313-15-15-1515--|
E|----------------------------------------------|

2:32 - 3:02 
G|-------------------------------------------------------------------------------|
D|-------------------------------------------------------------------------------|
A|-------------------------------------------------------------------------------|
E|-10-10-1010--10-10-1010-10-10-1010--10-10-1010-6-6-66--6-6-66--8-8-88--8-8-88--|

3:03 - 3:40
G|----------------------------------------------|
D|----------------------------------------------|
A|----------------------------------------------|
E|-101010101010101010-666666666666-888888888888-|

3:40 - 4:06
G|-----------------------------------------------|---|
D|-12(x16)---------------------------------------|   |
A|--------13(x16)------------1515151515----------|   |
E|-------------------13131313--------------------|   |
                                                     |x2 
G|-----------------------------------------------|   |
D|-12121212121212---------------15151515---------|   |
A|---------------13131313131313---------15151515-|   |
E|-----------------------------------------------|---|

4:06 - 4:32
G|------------1212---1212-12--------------------|
D|-1212-12--15-----15---------------------------|
A|----------------------------------------------|
E|----------------------------------------------|

4:33 End on A ( D|-12-| )
            
Hard to play? Try these video lessons and learn fast. | Correct




comments powered by Disqus
↑ Back to top | Tablatures and chords are parodies/interpretations of the original songs. You may use it for private study, scholarship, research or language learning purposes only