» » »

Foals, Astronauts N All Bass tabs (ver.1)

Artists:  A B C D E F G H I J K L M N O P Q R S T U V W X Y Z # 

Astronauts N All Bass tabs (ver.1)

Foals Tabs
Rating:
5/5 (2 votes)
Astronauts N All lessons Tabs too difficult? Try these video lessons and learn fast
                It's on the limited version CD... enjoy :)

0:06 - 0:18
G|----------------------------------------------|
D|----------------------------------------------|
A|----------------------------------------------|
E|----5----5----5----5----5----5----5----5------|

0:19 - 0:38
G|---------------------------------------------------------------------------|
D|---------------------------------------------------------------------------|
A|---------------------------------------------------------------------------|
E|-55--5---55--5---55--5---55--5---55--5---55-5---55-5--5--5--5--5-5-5-5-5555|

0:39 - 1:04
G|-------------------------12------------------------------|
D|-15-15-15-15-15-15-151515--12-12-12-12-12121212-1010-----|
A|----------------------------------------------------1212-|
E|---------------------------------------------------------| x4

1:05 - 1:30
G|------------------------10-12-15-----|--------\
D|-12-12-1212---12-141414--------------|        |
A|-------------------------------------|        |
E|-------------------------------------| x1     |
					                            |x2
G|-------------------------10-12-15----|        |
D|-12-12-1212-12-12-141414-------------|        |
A|-------------------------------------| x3     |
E|-------------------------------------|--------/

1:31 - 1:43
G|---------------------------------------------------------|
D|----------------------------------------------------5-7--|
A|--3---3-3-3-3---3---3-3-3-3---3---3-3-3-3---3---3-3------|
E|---5---5-5-5-5---5---5-5-5-5---5---5-5-5-5---5---5-5-----|

1:44 - 2:27
G|----------------------------------------|
D|--5-7--5-7--5-7--5-7--5-7--5-7--5-7(/)--|(<-slide on the last one)
A|-7----7----7----7----7----7----7--------|
E|----------------------------------------|x8

2:28 - 2:41
G|-----------------------------------------------|
D|--77777777----77-77-7777777777777777777777777--|
A|-----------------------------------------------|
E|----5--5--5555-55-5-5----5-5---5----5---555-5--| (sth like that... it's only A...)

2:42 - End
G|-------------------------12------------------------------|
D|-15-15-15-15-15-15-151515--12-12-12-12-12121212-1010-----|
A|----------------------------------------------------1212-|
E|---------------------------------------------------------|x4 

End on F (D|-15-|)
            

comments powered by Disqus
↑ Back to top | Foals Bass for Astronauts N All. Lyrics for acoustic guitar and electric guitar. Tablatures and chords are parodies/interpretations of the original songs. You may use it for private study, scholarship, research or language learning purposes only