>
 >
Whistle

Whistle Guitar Tabs

Flo Rida - Whistle chords, tabs, tablatures, lyrics

Guitar lessons | Add/correct | Request | Top 50 tabs Artists:  A B C D E F G H I J K L M N O P Q R S T U V W X Y Z 0-9

Whistle Guitar Tabs – Flo Rida

CD, Sheet music, Poster

Do you like Whistle? Share with your friends now
Bass TabsChordsChords v2Chords v3Chords v4Chords v5TabsTabs v2Tabs v3Tabs v4
------------------------------------------------------------------------------
-------------------------------------------------------------------------------

Tuning: Standard

e|-------------------------------------------------------| 
B|---0-0-0-0----1-1----------1-1--------1--3--3----------| X2
G|-------------------2-0----------2-0--------------------|
D|-------------------------------------------------------|
A|-------------------------------------------------------|
E|-------------------------------------------------------|

e|-----------5-5--3-3-0-0---------0-3-0----------------------------------------------------|
B|---1-1-------------------3-1---------------0-0-0-0---1-1-------1-1----------3--0--1------|
G|---------------------------------------------------------2-0--------2-0------------------|
D|-----------------------------------------------------------------------------------------|
A|-----------------------------------------------------------------------------------------|
E|-----------------------------------------------------------------------------------------|

e|---5--3--0--3--0----0---------0--------------|
B|----------------------3--1--3----------------| X2
G|---------------------------------------------|
D|---------------------------------------------|
A|---------------------------------------------|
E|---------------------------------------------|

e|----------------------------------------------------------------------------------|
B|-----1-1-1-1-1-1-------1-1-1-1-3-1---------1-1-1-1-1---1--1---1---1---1-1-3-1-----|
G|---2---------------0-0----------------0-0------------0------0---2---2-------------|
D|----------------------------------------------------------------------------------|
A|----------------------------------------------------------------------------------|
E|----------------------------------------------------------------------------------|

e|---------0-----------------------0-----------------------------------------|
B|-----1-1---1-1-1-----------1-1-1---1-1-1-------1-1-1-1-1-0-1-1-------------|
G|---0--------------0------0---------------2---------------------2-----------|
D|---------------------------------------------------------------------------|
A|---------------------------------------------------------------------------|
E|---------------------------------------------------------------------------|

e|-----------0---------------------------------------------------------------|
B|---1-1-1-1---1-1-1------1-1-1-1-1-1-1-1-1-1-1-1-1-1-1-1-1-1-1--------------|
G|-------------------0------------------------------------------0------------|
D|---------------------------------------------------------------------------|
A|---------------------------------------------------------------------------|
E|---------------------------------------------------------------------------|

e|---------------------------------------------------------------------------|
B|---1-1-1-1-1-1-1-1----1-1-1-1-1-1-1-0-0-0-0--1-1-----1-1-------------------|
G|-------------------0-----------------------------2-0-----2-0---------------|
D|---------------------------------------------------------------------------|
A|---------------------------------------------------------------------------|
E|---------------------------------------------------------------------------|

e|--------------------------------------------------5-5-3-3-0-0-----0-3-0----|
B|---1-3-3----0-0-0-0--1-1-----1-1------1-3-3--1-1--------------3-1----------|
G|-------------------------2-0-----2-0---------------------------------------|
D|---------------------------------------------------------------------------|
A|---------------------------------------------------------------------------|
E|---------------------------------------------------------------------------|

e|---------------------------------------------------------------------------|
B|---0-0-0-0--1-1------1-1------3-0-1------1-1-1-1-3---1---1---1---1---1-----|
G|----------------2-0------2-0---------------------------2---2---2---2---0---|
D|---------------------------------------------------------------------------|
A|---------------------------------------------------------------------------|
E|---------------------------------------------------------------------------|

e|----------------------0-0-0-0-0-0-0-0-0-0----------------------------------|
B|---1-0----1-1-1-3-1-1---------------------3-1----1-1-1-1-1-3-1-1-0---1-----|
G|-------2---------------------------------------0-------------------2-------|
D|---------------------------------------------------------------------------|
A|---------------------------------------------------------------------------|
E|---------------------------------------------------------------------------|

e|---------------------------------------------------------------------------|
B|---1-1-1-1-1-3-1-1-3-0-0-0-0---1-1-----1-1------1-3-3----------------------| 
G|-----------------------------------2-0-----2-0-----------------------------|
D|---------------------------------------------------------------------------|
A|---------------------------------------------------------------------------|
E|---------------------------------------------------------------------------|

e|----------------------------------------------|
B|----0-0-0-0---1-1-----1-1------1-3-3--1-1-----| 
G|------------------2-0-----2-0-----------------|
D|----------------------------------------------|
A|----------------------------------------------|
E|----------------------------------------------|

e|---5-5-3-3-0-0-----0-3-0---------------------------------------------------|
B|---------------3-1---------0-0-0-0---1-1------1-1-------3-0-1--------------|
G|-----------------------------------------2-0------2-0----------------------|
D|---------------------------------------------------------------------------|
A|---------------------------------------------------------------------------|
E|---------------------------------------------------------------------------|

I Hope this helps you ,I tabbed it by ear and I'm Certain that it's correct.

Lyrics:

Can you blow my whistle, baby?
Whistle, baby, let me know
Girl, I'm gonna show you how to do it
And we start real slow
You just put your lips together
And you come real close
Can you blow my whistle, baby?
Whistle, baby, here we go

I'm betting you like people
And I'm betting you love freak mode
And I'm betting you like girls
That give love to girls and stroke your little ego

I bet you I'm guilty, your honor
That's just how we live in my genre
Went to hell and paid the Rottweiler
There's only one Flo and one Rida

I'm a damn shame, order more champagne
Pulled a damn ham string, trying to put it on ya
Bet your lips spin back around corner
Slow it down baby, take a little longer

Can you blow my whistle, baby?
Whistle, baby, let me know
Girl, I'm gonna show you how to do it
And we start real slow

You just put your lips together
And you come real close
Can you blow my whistle, baby?
Whistle, baby, here we go

Whistle baby, whistle, baby
Whistle baby, whistle, baby
Whistle baby, whistle, baby
Whistle baby, whistle, baby

It's like everywhere I go, my whistle ready to flow
Shorty don't even know, she can get any by the low
Tell me she not a pro, it's okay, it's under control
Show me soprano 'cause girl, you can handle

Baby, we start something, you come up in bar clothes
Girl, I'm loosening, my Bugatti the same road
Show me your perfect pitch, you got it my banjo
Talented with your lips like you blew out a candle

So amusing
Now you can make a whistle with the music
Hope you ain't got no issue, you can do it
Give me the perfect pitch, you never lose it

Can you blow my whistle, baby?
Whistle, baby, let me know
Girl, I'm gonna show you how to do it
And we start real slow

You just put your lips together
And you come real close
Can you blow my whistle, baby?
Whistle, baby, here we go

Whistle baby, whistle, baby
Whistle baby, whistle, baby
Whistle baby, whistle, baby
Whistle baby, whistle, baby

Go on girl, you can perk it
Let me see your whistle while you work it
I'ma lay it back, don't stop it
'Cause I love it how you drop it, drop it, drop it on me

Now, shorty let that whistle blow
Yeah, baby make that whistle blow

Can you blow my whistle, baby?
Whistle, baby, let me know
Girl, I'm gonna show you how to do it
And we start real slow

You just put your lips together
And you come real close
Can you blow my whistle, baby?
Whistle, baby, here we go

Can you blow my whistle, baby?
Whistle baby, whistle, baby
Whistle baby, whistle, baby

Can you blow my whistle, baby?
Whistle baby, whistle, baby
Whistle baby, whistle, baby

Can you blow my whistle, baby?
Whistle baby, whistle, baby
Whistle baby, whistle, baby

Can you blow my whistle, baby?
Whistle baby, whistle, baby
Whistle baby, whistle, baby





Comments


Popular Flo Rida tabs & chords
Good Feeling 1 Chords
Good Feeling 2 Chords
Right Round 1 Chords
Whistle 2 Chords
Whistle Intro Chords
Wild Ones 5 Chords
Goof Feeling Tabs
Low 1 Tabs
Right Round 1 Tabs
Whisthle Ukulele


Song lyrics



↑ Back to top | Tablatures and chords are parodies/interpretations of the original songs. You may use it for private study, scholarship, research or language learning purposes only
© 2014 AZChords.com Contact us | Privacy policy | DMCA | Add/correct tabs | Request tabs | Top 50 tabs