» » »

Something Grown Together Bass tabs (ver.1)

Artists:  A B C D E F G H I J K L M N O P Q R S T U V W X Y Z # 

Something Grown Together Bass tabs (ver.1)

Flobots
Rating:
5/5 (1 vote)

Tabs too difficult? Try these video lessons and learn fast.
                Artist : Flobots
Song   : Something Grown Together
Album  : Platypus

Simple but a groovy song to learn.


G-----9-----7------9------7-----9------7-6~-|
D---9-----7------9------7-----9------7---7~-|
A-7-----5------7------5-----7------5--------|
E-------------------------------------------|

G-----9-----7------9------7-----9------7-6~-|
D---9-----7------9------7-----9------7---7~-|
A-7-----5------7------5-----7------5--------|
E-------------------------------------------|

G-----9-----7------9------7-----9------7-6~-|
D---9-----7------9------7-----9------7---7~-|
A-7-----5------7------5-----7------5--------|
E-------------------------------------------|

Repeat !
Thanks
            
Tabs too difficult? Try these video lessons and learn fast.




comments powered by Disqus
↑ Back to top | Tablatures and chords are parodies/interpretations of the original songs. You may use it for private study, scholarship, research or language learning purposes only