» » »

Fleetwood Mac, Bare Trees Tabs (ver.1)

Artists:  A B C D E F G H I J K L M N O P Q R S T U V W X Y Z # 

Bare Trees Tabs (ver.1)

Fleetwood Mac Tabs
 Rating:
4/5 (4 votes)
Bare Trees lessons Tabs too difficult? Try these video lessons and learn fast
1
                
Standard Tuning
Listen for timing on all of the parts

INTRO

1ST GUITAR
|--------------------------------------------------------|
|--------------------------------------------------------|
|----------------------------------9-7-------------------|
|-----0-2-----2-0----------------------7-9-7-------------|
|-0-2-------------0-2-0----------------------10-7--------|
|------------------------3-0-----------------------------|

2ND GUITAR
|--16-----12-------------------------------------------|
|--17-----12-------------------------------------------|
|--16-----13-------------------------------------------|
|------------------------------------------------------|
|------------------------------------------------------|
|------------------------------------------------------|

Verse    
E A G E      E B D A

FIRST BREAKDOWN
|------------------------------------------------------|
|------------------------------------------------------|
|------------------------------------------------------|
|---------------------2--------------------------------|
|-----------0-1-2-2-4---4-2p0--------------------------|
|-0-0-2-3-4--------------------------------------------|

SECOND BREAKDOWN
|-------------------------------|
|-------------------------------|
|-------------------------------|
|---------0---2-0---------------|
|----0-2----0-----0-2-4-0-2-----|
|--0----------------------------|

|-------------------------------|
|-------------------------------|
|-------------------------------|
|---------0-----2-0-------------|
|----0-2------0-----4-0-2-------|
|--0----------------------3-----|

THIRD BREAKDOWN
|------------------------------------------------------|
|------------------------------------------------------|
|------------------------------------------------------|
|--2--4--------0--0-2-------0--------------------------|
|--------2--2---------0-1-2----------------------------|
|------------------------------------------------------|

ENDING
|------------------------------------------------------|
|------------------------------------------------------|
|------------------0-----------------------------------|
|---0-2-0-2-0-2-02---2-2-0-----0-----------------------|
|--------------------------0h2-------------------------|
|------------------------------------------------------|
            
Submit corrections

comments powered by Disqus
↑ Back to top | Fleetwood Mac Tabs for Bare Trees. Lyrics for acoustic guitar and electric guitar. 1 Tablatures and chords are parodies/interpretations of the original songs. You may use it for private study, scholarship, research or language learning purposes only