array
(
    
'uptomeintro1' => 'uptomeintro1'
    'fivetimesaugust' 
=> 'fivetimesaugust'
)
Up To Me Tabs (ver. 3) by Five Times August @ AZ CHORDS.COM
» » »

Up To Me Tabs (ver.3)

Artists:  A B C D E F G H I J K L M N O P Q R S T U V W X Y Z # 

Up To Me Tabs (ver.3)

Five Times August
Rating:
0/5 (0 votes)

Hard to play? Try these video lessons and learn fast.
                (Intro)
This is what i figure is right by carefully listening to the song and listening to
notes. It may be hard for you to adjust to the finger positions, i suggest finding a way that
you most. There is more is more than one version of this song recorded, but this is the 


e|-----------------------------------------------|
B|-------2---------2---------2------2------------|
G|----------1---------1---------1--1---1---------|
D|----4---------4---------4----------------------|
A|-----------------------------------------------|
E|--0---------2---------4------------------------|
              ^         ^
            thumb     pinky


e|-------------------------------------4---------|
B|-------2---------2---------2-------2-----------|
G|----------1---------1---------1--1-------------|
D|----4---------4---------4----------------------|
A|-----------------------------------------------|
E|--0---------2---------4------------------------|

e--------------------------------------|
b--------2-------2-----------2-------2-|
g------3-------3-----------3---3---3---|
d----4-------4-----------4-------4-----|
a--------------------------------------|
E-0--------2----------4----------------|
           ^          ^
         thumb      pinky

e------------------------------------4-|
b--------2-------2-----------2---------|
g------3-------3-----------3---3---3---|
d----4-------4-----------4-------4-----|
a--------------------------------------|
E-0--------2----------4----------------|

e--------------------------------------|
b--------2-------2-----------2-------2-|
g------3-------3-----------3---3---3---|    x8 times
d----4-------4-----------4-------4-----|
a--------------------------------------|
E-0--------2----------4----------------|

e------------------------------------4-|
b--------2-------2-----------2---------|
g------3-------3-----------3---3---3---|
d----4-------4-----------4-------4-----|
a--------------------------------------|
E-0--------2----------4----------------|

e--------------------------------------|
b--------2-------2-----------2-------2-|
g------3-------3-----------3---3---3---|
d----4-------4-----------4-------4-----|
a--------------------------------------|
E-0--------2----------4----------------|

e------------------------------------4-|
b--------2-------2-----------2---------|
g------3-------3-----------3---3---3---|
d----4-------4-----------4-------4-----|
a--------------------------------------|
E-0--------2----------4----------------|

e--------------------------------------|
b--------2-------2-----------2-------2-|
g------3-------3-----------3---3---3---|    x3 times
d----4-------4-----------4-------4-----|
a--------------------------------------|
E-0--------2----------4----------------|

e------------------------------------4-|
b--------2-------2-----------2---------|
g------3-------3-----------3---3---3---|
d----4-------4-----------4-------4-----|
a--------------------------------------|
E-0--------2----------4----------------|

e--------------------------------------|
b--------2-------2-----------2-------2-|
g------3-------3-----------3---3---3---|    x2 times
d----4-------4-----------4-------4-----|
a--------------------------------------|
E-0--------2----------4----------------|


e----------------------------4-------2-2-2-2--|
b--------2-------2-----------2-------0-0-0-0--|
g------3-------3-----------3-----3-3-3-3-3-3--|
d----4-------4-----------4-------4-4-4-4-4-4--|
a---------------------------------------------|
E-0--------2----------4-----------------------|


This is as far as i have tabbed it, didn't feel like getting into the strumming.  Hope
enjoy it!  -Chris Arthur, Brentwood CA
            
Hard to play? Try these video lessons and learn fast. | Correct




comments powered by Disqus
↑ Back to top | Tablatures and chords are parodies/interpretations of the original songs. You may use it for private study, scholarship, research or language learning purposes only