» » »

Five Times August, Do It Again Tabs (ver.2)

Artists:  A B C D E F G H I J K L M N O P Q R S T U V W X Y Z # 

Do It Again Tabs (ver.2)

Five Times August Tabs
 Rating:
4/5 (4 votes)
Do It Again lessons Tabs too difficult? Try these video lessons and learn fast
1
                Band: Five Times August

Capo: 3rd Fret

real tab so don't be too harsh.

Intro, 1st Verse, and Chorus

e|----------------|--------------------------------|
 |------3-------3-|------3-------3------3--------3-|
 |-----0-0-----2--|-----0-2-----0-2----0-2------0--|
 |----2---2---2---|----2---2---2---2--2---2----2---| Play this 1 time then
 |-0h3-----0h3----|-0h3-----0h3----0h2------0h3----| start singing.
E|----------------|--------------------------------|

So you got what you want out of me...

e|----------------|         |--------------------------------|
 |------3-------3-|         |------3-------3------3--------3-|
 |-----0-0-----2--|         |-----0-2-----0-2----0-2------0--|
 |----2---2---2---|         |----2---2---2---2--2---2----2---|
 |-0h3-----0h3----|         |-0h3-----0h3----0h2------0h3----|
E|----------------|         |--------------------------------|

Every time you play the first part once play the second part twice, play this until the 
of the first chorus which is about :50 seconds into the song, then start the chord strumming.

This is the basic deal, but he does some things that I couldn't figure out.

|-0-0-x-0-0-0--x-0-0-x-|
|-3-3-x-3-3-3/-x-3-3-x-|
|-0-0-x-0-0-0--x-0-0-x-| x3
|-2-2-x-2-2-2/-x-2-2-x-|
|-2-2-x-2-2-2/-x-2-2-x-|
|-0-0-x-0-0-0--x-0-0-x-|

After that 3 times he continues to do it without the slide part 6 times and then that 
twice, then he launches into a different sounding progression at about 1:38 in the song, 
it's just one extra finger.

|-3-3-0-x-3-3-0-|
|-3-3-3-x-3-3-3-|
|-0-0-0-x-0-0-0-|
|-2-2-0-x-0-0-0-|
|-2-2-0-x-0-0-0-|
|-0-0-0-x-0-0-0-|

Thats all I could figure out, he goes back and forth between these two riffs then solos, 
couldn't figure that out.
            
Submit corrections

comments powered by Disqus
↑ Back to top | Five Times August Tabs for Do It Again. Lyrics for acoustic guitar and electric guitar. 1 Tablatures and chords are parodies/interpretations of the original songs. You may use it for private study, scholarship, research or language learning purposes only