» » »

Five Iron Frenzy, Litmus Bass tabs (ver.1)

Artists:  A B C D E F G H I J K L M N O P Q R S T U V W X Y Z # 

Litmus Bass tabs (ver.1)

Five Iron Frenzy Tabs
 Rating:
4/5 (4 votes)
Litmus lessons Tabs too difficult? Try these video lessons and learn fast
1
                "Litmus"
 Five Iron Frenzy
 Our Newest Album Ever!
 Lyrics: Reese Roper
 Music: Scott Kerr and Dennis Culp
 (c) 1997 Sarabellum Records

 --Intro One--
G-|---------------------------------------|
D-|---------------------------------------|
A-|-5-5--------------------5-5------------|
E-|------------5-5---------------------2--|
   Right after that last 2 the bass cuts 
   off and the guitar finishes the note 
   then goes up to an A (Estring5thfret). 

 --Intro Two and Chorus--
G-|---------------------------------|
D-|----------3-3-3------------------|
A-|----------------2-3-3-3----------|
E-|--3-3-3-------------------5-5-5--|

G-|---------------------------------|
D-|----------3-3-3------------------|
A-|----------------2-3-3-3---5-5-5--|
E-|--3-3-3--------------------------|

G-|---------------------------------|
D-|----------3-3-3------------------|
A-|----------------2-3-3-3----------|
E-|--3-3-3-------------------5-5-5--|

G-|---------------------------------|
D-|----------3-3-3------------------|
A-|----------------2-3-3-3-2-3-3-3--|
E-|--3-3-3--------------------------|

 --Intro Three and Outro--
G-|---------------------------------|
D-|---------------------------------|
A-|------------------4-5--5-5-5-5-5-|
E-|--5---5-5--5--5-5----------------|

 --Cool Verse Riff--
G-|---------10-10-10-10-7-7-7-7---------|
D-|-5-5-5-5---------------------8-8-8-8-|
A-|-------------------------------------|
E-|-------------------------------------|

 --Prechorus--
G-|---------------------------------|
D-|---------------------------------|
A-|-3---3---3-3-3-3-4-5-5-5-5-5---5-|
E-|---------------------------------|
                                       2x
G-|---------10-10-10-10-7-7-7-7---------|
D-|*5-5-5-5---------------------8-8-8-8*|
A-|*-----------------------------------*|
E-|-------------------------------------|

G-|---------------------------------|
D-|---------------------------------|
A-|-3---3---3-3-3-3-4-5-5-5-5-5---5-|
E-|---------------------------------|

 Play Chorus

 Play Verse

 Play Prechorus

 Play Chorus

 --Bridge One--
G-|-----------------------------------|
D-|-----------------------------------|
A-|----9--9-9-9--9-9---8--8-8-8-8--8--|
E-|-----------------------------------|

G-|-----------------------------------|
D-|-----------------------------------|
A-|----7--7-7-7--7-7-5-5-555-5-555-5--|
E-|-----------------------------------|

 --Bridge Two--
G-|-----------------------------|
D-|-----------------------------|
A-|-----------------------------|
E-|-5--5-5-5--5--5-3-3-3-3-3--3-|

G-|-----------------------------|
D-|-----------------------------|
A-|-5--5-5-5--5--5-3-3-3-3-3--3-|
E-|-----------------------------|

G-|-----------------------------|
D-|-----------------------------|
A-|-----------------------------|
E-|-5--5-5-5--5--5-3-3-3-3-3--3-|

G-|-----------------------------|
D-|-----------------------------|
A-|-----------------------------|
E-|-0-0-0-0-0-0-0-0-0-0-2-2-2-5-|

 Play Verse

 Play first two parts of chorus with two
       beats of D (Astring5thfret) on 
       the end.

 Play Chorus

 Play Outro
            
Submit corrections

comments powered by Disqus
↑ Back to top | Five Iron Frenzy Bass for Litmus. Lyrics for acoustic guitar and electric guitar. 1 Tablatures and chords are parodies/interpretations of the original songs. You may use it for private study, scholarship, research or language learning purposes only