» » »

Five Iron Frenzy, Giants Bass tabs (ver.1)

Artists:  A B C D E F G H I J K L M N O P Q R S T U V W X Y Z # 

Giants Bass tabs (ver.1)

Five Iron Frenzy Tabs
Rating:
0/5 (0 votes)
Hard to play? Try these video lessons and learn fast.
                
Intro: 4x
G---------------------|
D---------------------|
A-0---1---0---1-2-3-4-|
E---1---1---1---------|

Verse:
G--------------------------------------------------------|
D--------------------------------------------------------|
A-0---1-1-2-2-3---3-4-5-6-7---7-7-6-5-4---4-3-2-1--------|
E---1-------------3------------7------------4------------|

G-------------------------------------------------------|
D-------------------------------------------------------|
A-0--1-1-2-2-3---3-4-5-6-7---7-7-6-5-4---4-2-3-5--------|
E---1------------3------------7------------4------------|

Pre-Chorus:
G-----------------------------------------|
D-2-------2-------------------------------|
A---2---2---2---2---5-5-2---2-------------|
E-----5-------5---2--------2---3-3--5--7--|

Chorus:
G-----------------------------------------|
D-----------------------------------------|
A-3-----5-0-----3---5-5-0-0---------------|
E---3-3-----3-1---3----------4-3--3-5-7---|

G-----------------------------------|
D-----------------------------------|
A-3---7-2-0---0------7--5-----------|
E---3--------2---2--5--3---0~-1~----|

Intro: 2x
G---------------------|
D---------------------|
A-0---1---0---1-2-3-4-|
E---1---1---1---------|

Verse:
G--------------------------------------------------------|
D--------------------------------------------------------|
A-0---1-1-2-2-3---3-4-5-6-7---7-7-6-5-4---4-3-2-1--------|
E---1-------------3------------7------------4------------|

G-------------------------------------------------------|
D-------------------------------------------------------|
A-0--1-1-2-2-3---3-4-5-6-7---7-7-6-5-4---4-2-3-5--------|
E---1------------3------------7------------4------------|

Pre-Chorus:
G-----------------------------------------|
D-2-------2-------------------------------|
A---2---2---2---2---5-5-2---2-------------|
E-----5-------5---2--------2---3-3--5--7--|

Chorus:
G-----------------------------------------|
D-----------------------------------------|
A-3-----5-0-----3---5-5-0-0---------------|
E---3-3-----3-1---3----------4-3--3-5-7---|

G------------------------------------|
D------------------------------------|
A-3---7-2-0---0----------------------|
E---3--------2---2---3~-1~-0~--------|

Bridge: 6x
G----------------------------------------------------------------------------|
D----------------------------------------------------------------------------|
A--------------------------0-2-2-2-2-3-3-2-0---0-2---0-2-0--------0----------|
E-0-0-0-2-3-3-3-2-0-2-3----------------------3-----3--------3-2-3---2--------|

Outro: 2x
G----------------------------------------------------|
D----------------------------------------------------|
A-3333------0000-------------5555--0000--------------|
E-------3333------1111--3333--------------3333-------|

G----------------------------------------------------|
D----------------------------------------------------|
A-3333------00000000---------------------------------|
E-------0000------------3333-1111-0000-1111----------|

End note: A-4~-
            

comments powered by Disqus
↑ Back to top | Five Iron Frenzy Bass for Giants. Lyrics for acoustic guitar and electric guitar. Tablatures and chords are parodies/interpretations of the original songs. You may use it for private study, scholarship, research or language learning purposes only