» » »

Dandelion Bass tabs (ver.4)

Artists:  A B C D E F G H I J K L M N O P Q R S T U V W X Y Z # 

Dandelion Bass tabs (ver.4)

Five Iron Frenzy
Rating:
0/5 (0 votes)

Hard to play? Try these video lessons and learn fast.
                Song    : Dandelions
Artist  : Five Iron Frenzy
Album   : Quantity is Job 1


Verse:
G:------------------------------------------------------------------|
D:--11-14--2-----------2--------------------------------------------|  Play
A:------------5--4---------5-4-------4--7--5-4-------4--7--5-4------|  2x
E:-------------------55----------55-5------------55-5---------------|

Pre-Chorus:
G:------------------------            ------------------------------|
D:------------------------            ------------------------------|
A:--9-9-8-88-7-7-6-6------ Play 3x    -5555--4444--7777-------------|
E:---------------------7-- then:      -----------------------4444---|

Verse:
G:------------------------------------------------------------------|
D:--11-14--2-----------2--------------------------------------------|  Play
A:------------5--4---------5-4-------4--7--5-4-------4--7--5-4------|  2x
E:-------------------55----------55-5------------55-5---------------|

Pre-Chorus:
G:------------------------              ------------------------------|
D:------------------------              ------------------------------|
A:--9-9-8-88-7-7-6-6--- Play 3x  -5555--4444--7777--------------------|
E:---------------------7-- then:      -----------------------4444-----|

Chorus: ( \ means slide down)
G:-----------------------------------------------------------|
D:-----------------------------------------------------------|
A:-------77-7\--------99-9\--5555-4444-2222------------------|
E:--55-5\-------77-7\---------------------------2222-- Play--| 2x

Verse:
G:------------------------------------------------------------------|
D:--11-14--2-----------2--------------------------------------------|  Play
A:------------5--4---------5-4-------4--7--5-4-------4--7--5-4------|  2x
E:-------------------55----------55-5------------55-5---------------|

Pre-Chorus:
G:------------------------            ------------------------------|
D:------------------------            ------------------------------|
A:--9-9-8-88-7-7-6-6------ Play 3x    -5555--4444--7777-------------|
E:---------------------7-- then:      -----------------------4444---|

Chorus: ( \ means slide down)
G:-----------------------------------------------------------|
D:-----------------------------------------------------------|
A:-------77-7\--------99-9\--5555-4444-2222------------------|
E:--55-5\-------77-7\---------------------------2222-- Play--| 2x

Bridge: Play first part 3x
G:----------------------   -----------------------------------------------|
D:----------------------   -----------1111-2222-3333-4444-2222-3333-------|
A:--4444-5555------2222--  4444-5555--------------------------------------|
E:------------5555------   -----------------------------------------------|

Pre-Chorus:
G:------------------------           ------------------------------|
D:------------------------           ------------------------------|
A:--9-9-8-88-7-7-6-6---    Play 3x   -5555--4444--7777-------------|
E:---------------------7-- then:     -------------------4444-------|

Chorus: ( \ means slide down)
G:-----------------------------------------------------------|
D:-----------------------------------------------------------|
A:-------77-7\--------99-9\--5555-4444-2222------------------|
E:--55-5\-------77-7\---------------------------2222-- Play--| 4x

4th Ending(In place of A2's and E 2's)
E:--22-00-5~--
            
Hard to play? Try these video lessons and learn fast. | Correct




comments powered by Disqus
↑ Back to top | Tablatures and chords are parodies/interpretations of the original songs. You may use it for private study, scholarship, research or language learning purposes only