» » »

Dandelion Bass tabs (ver.1)

Artists:  A B C D E F G H I J K L M N O P Q R S T U V W X Y Z # 

Dandelion Bass tabs (ver.1)

Five Iron Frenzy
Rating:
0/5 (0 votes)

Hard to play? Try these video lessons and learn fast.
                Dandelions- Five Iron Frenzy
Standard Tuning (EADG)

----------
horn intro
----------


verse

G:--------------------------------------------------:
D:-11-1-4-2-0------2-0-2---------2-0----------2-0---:
A:------------44-4--------00-0-4-----4-00-0-4-----4-:
E:--------------------------------------------------:	x2


pre-chorus

G:-----------:       G:---------------------:
D:-----------:       D:---------------------:
A:-9-8-7-66--:       A:-5555-4444-7777------:
E:---------7-:	x3   E:----------------4444-:	


verse

G:--------------------------------------------------:
D:-11-1-4-2-0------2-0-2---------2-0----------2-0---:
A:------------44-4--------00-0-4-----4-00-0-4-----4-:
E:--------------------------------------------------:	x2


pre-chorus

G:-----------:       G:---------------------:
D:-----------:       D:---------------------:
A:-9-8-7-66--:       A:-5555-4444-7777------:
E:---------7-:	x3   E:----------------4444-:	


chorus

G:--------------------------------:
D:--------------------------------:
A:----77----99-5555-4444-2222-----:
E:-55----77-------------------2222:	x2


verse

G:--------------------------------------------------:
D:-11-1-4-2-0------2-0-2---------2-0----------2-0---:
A:------------44-4--------00-0-4-----4-00-0-4-----4-:
E:--------------------------------------------------:	x2


pre-chorus

G:-----------:       G:---------------------:
D:-----------:       D:---------------------:
A:-9-8-7-66--:       A:-5555-4444-7777------:
E:---------7-:	x3   E:----------------4444-:	


chorus

G:---------------------------------:
D:---------------------------------:
A:----77----99-5555-4444-2222------:
E:-55----77-------------------2222-:	x2


bridge

G:--------------------:     G:-----------------------------------------:
D:--------------------:     D:-----------------------------------------:
A:-4444-5555------7777:     A:-4444-5555-6666-7777-5555-6666-7777-8888-:
E:-----------5555-----:	x2  E:-----------------------------------------:


pre-chorus

G:-----------:       G:---------------------:
D:-----------:       D:---------------------:
A:-9-8-7-66--:       A:-5555-4444-7777------:
E:---------7-:	x3   E:----------------4444-:	


chorus

G:--------------------------------:
D:--------------------------------:
A:----77----99-5555-4444-2222-----:
E:-55----77-------------------2222:	x4

G:---------:
D:---------:
A:-------0-:
E:-22-00---:

        
       NOTES
|feel free to improvise on |
|this song. let the last   |
|note ring. have fun.listen|
|to the song for exact     |
|rythms. rate my tab!      |
            
Hard to play? Try these video lessons and learn fast. | Correct




comments powered by Disqus
↑ Back to top | Tablatures and chords are parodies/interpretations of the original songs. You may use it for private study, scholarship, research or language learning purposes only