» » »

Beautiful America Bass tabs (ver.1)

Artists:  A B C D E F G H I J K L M N O P Q R S T U V W X Y Z # 

Beautiful America Bass tabs (ver.1)

Five Iron Frenzy
Rating:
3/5 (2 votes)

Hard to play? Try these video lessons and learn fast.
                INTRO:
G|------------------------------------------------------|
D|-------------------------------4-4-4------------------|
A|---2-2-2-----------5-5-5------------------------------|
E|-------------5-5-5------------------------------------|

G|------------------------------------------------------------|
D|--5-5-5-----------2-2-2------------5-5-5------------2-2-2-2-|
A|-----------5-5-5------------2-2-2------------5-5-5----------|
E|------------------------------------------------------------|

CHORUS:
G|--------------------------------------------------|
D|--------------------------------------------------|
A|-----3-----3-----5-----5-----3----3---5------5----|
E|--1-----1-----3-----3-----1----1----------5-----5-|

WEST SIDE STORY PART:
G|--------------------------------------------------------------------------------------|
D|-----6--9--6------------------------6--9--6-----------------------------------4--7--4-|
A|--7------------------4--7--4---7------------------6--9--6-------2--5--2--5------------|
E|------------------5---------------------------7--------------3------------------------|

G|--------------------------|
D|-----2--5--2------6--9--6-|
A|--3------------7----------|
E|--------------------------|
            
Hard to play? Try these video lessons and learn fast. | Correct




comments powered by Disqus
↑ Back to top | Tablatures and chords are parodies/interpretations of the original songs. You may use it for private study, scholarship, research or language learning purposes only