>
 >
A Flowery Song 1

A Flowery Song 1 Guitar Tabs

Five Iron Frenzy - A Flowery Song 1 chords, tabs, tablatures, lyrics

Guitar lessons | Add/correct | Request | Top 50 tabs Artists:  A B C D E F G H I J K L M N O P Q R S T U V W X Y Z 0-9

A Flowery Song 1 Guitar Tabs – Five Iron Frenzy

CD, Sheet music, Poster

Do you like A Flowery Song 1? Share with your friends now
Bass TabsBass Tabs v2TabsTabs v2
A Flowery Song by Five Iron Frenzy


Verse:
Ska style (mute the down stroke, play the upstroke):

| -7-7-7-7-5-5-7-7-|
| -9-9-7-7-5-5-7-7-|
| -9-9-8-8-6-6-8-8-| Repeat as needed
| -----------------|
| -----------------|
| -----------------|

Pre Chorus:

| -7-7-7-7-5-5-5-5-| 
| -7-7-7-7-5-5-5-5-|
| -8-8-8-8-6-6-6-6-|
| -----------------| Repeat as needed
| -----------------|
| -----------------|

Chorus (Distortion)

| --------------------------------|
| --------------------------------|
| -9-9-9-9-6-6-6-6-------2-2------|
| -9-9-9-9-6-6-6-6-4-4-4-2-2------| Repeat 4x's
| -7-7-7-7-4-4-4-4-4-4-4-0-0-2----|
| -----------------2-2-2------4-2-|

After that its those chords repeated under the
lead guitar which is playing these octave chords:

| --------------------------------------
| --------------------------------------
| -9-9-9-9-10-10-10-10-11-11-11-9-9-8-8-
| --------------------------------------
| -7-7-7-7--8--8--8--8--9--9--9-7-7-6-6-
| --------------------------------------

After you go through it all again you get to this part:

| -----------------------|
| -----------------------|
| -----------------------|
| -7-7-7/9-9-------------|
| -7-7-7/9-9-6---6-------|
| -5-5-5/7-7---7---7-7-5-|

Break (Clean):

   B     E     C#m     A

| -7---------7------4------5-|
| ---7-7-9----9-5------5-----|
| -8--9--------------6-----6-|
| -------9-9----6-6----7-7---|
| ---------------------------|
| ---------------------------|

Then back to the ska chords and chorus.

Thats all folks!





Comments


Popular Five Iron Frenzy tabs & chords
A Flowery Song 1 Bass Tabs
Arnold Willis And Mr Drummond 1 Bass Tabs
Kingdom Of The Dinosaurs 1 Bass Tabs
Pre-Ex Girlfriend 1 Bass Tabs
Suckerpunch 1 Bass Tabs
Superpowers 2 Bass Tabs
Dandelions Chords
World Without An End Chords
You Cant Handle This Intro Tabs
On Distant Shores Ukulele


Song lyrics



↑ Back to top | Tablatures and chords are parodies/interpretations of the original songs. You may use it for private study, scholarship, research or language learning purposes only
© 2014 AZChords.com Contact us | Privacy policy | DMCA | Add/correct tabs | Request tabs | Top 50 tabs