» » »

Five For Fighting, Chances Tabs (ver.2)

Artists:  A B C D E F G H I J K L M N O P Q R S T U V W X Y Z # 

Chances Tabs (ver.2)

Five For Fighting Tabs
 Rating:
4.3/5 (6 votes)
Chances lessons Tabs too difficult? Try these video lessons and learn fast
                Capo 1 to make your life a whole lot easier

 S S S S S S S S S S S S S S S S   S S S S S S S S S S S S S S S S
|-----1-----------1---------------|-----1-----------1----------------|
|-----------1-----------1-----1---|-----------1-----------1-----1----|
|---------3-----3-----3-----3-----|---------3-----3-----3-----3------|
|---3---3-----3-----3-----3-----3-|---3---3-----3-----3-----3-----3--|
|-1-------------------------------|----------------------------------|
|---------------------------------|-3--------------------------------|


  S S S S S S S S S S S S S S S S   S S S S S S S S S S S S S S S S
|-----1-----------1---------------|-----1-----------1-----------------|
|-----------1-----------1-----1---|-----------1-----------1-----------|
|---3-----3-----3-----3-----3-----|---------3-----3-----3-------------|
|-1-----1-----1-----1-----1-----1-|---3---3-----3-----3---------------|
|---------------------------------|-1---------------------------------|
|---------------------------------|-----------------------------------|

Verse

  S S S S S S S S S S S S S S S S   S S S S S S S S S S S S S S S S
|-----1-----------1---------------|-----1-----------1----------------|
|-----------1-----------1-----1---|-----------1-----------1-----1----|
|---------3-----3-----3-----3-----|---------3-----3-----3-----3------|
|---3---3-----3-----3-----3-----3-|---3---3-----3-----3-----3-----3--|
|-1-------------------------------|----------------------------------|
|---------------------------------|-3--------------------------------|
   Chances are what's said and done...

  S S S S S S S S S S S S S S S S   S S S S S S S S S S S S S S S S
|-----1-----------1---------------|-----1-----------1-----------------|
|-----------1-----------1-----1---|-----------1-----------1-----1-----|
|---3-----3-----3-----3-----3-----|---------3-----3-----3-----3-------|
|-1-----1-----1-----1-----1-----1-|---3---3-----3-----3-----3-----3---|
|---------------------------------|-1---------------------------------|
|---------------------------------|-----------------------------------|
 That make it all the way..
Chorus
  S S S S S S S S S S S S S S S S   S S S S S S S S S S S S S S S S
|-----1-----------1---------------|-----1-----------1-----------------|
|-----------1-----------1-----1---|-----------1-----------1-----1-----|
|---3-----3-----3-----3-----3-----|---------3-----3-----3-----3-------|
|-1-----1-----1-----1-----1-----1-|---3---3-----3-----3-----3-----3---|
|---------------------------------|-----------------------------------|
|---------------------------------|-3---------------------------------|
       Chances are...

  S S S S S S S S S S S S S S S S   S S S S S S S S S S S S S S S S
|-----1-----------1---------------|-----1-----------1-----------------|
|-----------1-----------1-----1---|-----------1-----------1-----1-----|
|---3-----3-----3-----3-----3-----|---------3-----3-----3-----3-------|
|-1-----1-----1-----1-----1-----1-|---3---3-----3-----3-----3-----3---|
|---------------------------------|-----------------------------------|
|---------------------------------|-1---------------------------------|
       Chances roll...
  
  S S S S S S S S S S S S S S S S   S S S S S S S S S S S S S S S S
|-----1---------------1-----------|-----3-----------3-----------------|
|-----------1---------------1-----|-----------3-----------3-----3-----|
|---3-----3-----3---------3-----3-|---------3-----3-----3-----3-------|
|-1-----1-----1-----3---3-----3---|---5---5-----5-----5-----5-----5---|
|---------------------------------|-----------------------------------|
|-----------------1---------------|-3---------------------------------|
        Chances are                All that they hope to be
                                         (can do half silent)

  S S S S S S S S S S S S S S S S
|-----1-----------1------------------|
|-----------1-----------1-----1------|
|---------3-----3-----3-----3--------|
|---3---3-----3-----3-----3-----3----|
|-1----------------------------------|
|------------------------------------|


Enjoy!
            
Submit corrections

comments powered by Disqus
↑ Back to top | Five For Fighting Tabs for Chances. Lyrics for acoustic guitar and electric guitar. Tablatures and chords are parodies/interpretations of the original songs. You may use it for private study, scholarship, research or language learning purposes only