» » »

War Is The Answer Tabs (ver.2)

Artists:  A B C D E F G H I J K L M N O P Q R S T U V W X Y Z # 

War Is The Answer Tabs (ver.2)

Five Finger Death Punch
Rating:
0/5 (0 votes)

Hard to play? Try these video lessons and learn fast.
                Tuning - BEADF#B.
                                                                            PH
B|-------------------------------------------------------------|--------------|
F|-------------------------------------------------------------|--------------|
D|-------------------------------------------------------------|--------------|
A|----4-----4-----4-----5-4--4--------4-----4-----4-----4------|--------------|
E|----4-4-4-4-4-4-4-4-4-3-2--2--------4-4-4-4-4-4-4-4-4-2--5---|--------------|
B|----2-2-2-2-2-2-2-2-2--------0-0-0--2-2-2-2-2-2-2-2-2----3---|-0000000000003|
        * *   * *   * *        * * *    * *   * *   * *          ************

B|---------------------|--------------|
F|---------------------|--------------|
D|---------------------|--------------|
A|---------------------|--------------|
E|-------7---8---5-7---|----5-5-5-5---|
B|---0-0---0---0-------|----3-3-3-3---|
     * *   *   *            * * * *

Solo backing - play low E5 chord with rhythm on CD.

E|---2----|
B|---0----|
            
Hard to play? Try these video lessons and learn fast. | Correct




comments powered by Disqus
↑ Back to top | Tablatures and chords are parodies/interpretations of the original songs. You may use it for private study, scholarship, research or language learning purposes only