>
 >
The Pride 1

The Pride 1 Guitar Tabs

Five Finger Death Punch - The Pride 1 chords, tabs, tablatures, lyrics

Guitar lessons | Add/correct | Request | Top 50 tabs Artists:  A B C D E F G H I J K L M N O P Q R S T U V W X Y Z 0-9

The Pride 1 Guitar Tabs – Five Finger Death Punch

CD, Sheet music, Poster

Do you like The Pride 1? Share with your friends now
TabsTabs v2
Five Finger Death Punch:The pride
American Capitalist


Tab Legend
h  -  hammer-on
p  -  pull-off
/  -  slide up
\  -  slide down
ps/-  pickslide up
ps\-  pickslide down
~  -  let ring
pm.-  palm mute
b  -  bend
r  -  return from bend
*  -  harmonic
x  -  dead note
^  -  Whammy bar
^\ -  Whammy bar (hold down)

Guitar 1 Rhythmic (B F# B E G# C#)
Guitar 2 Lead     (B F# B E G# C#)




Intro 1

Guitar 1
C#-----------------------------------------------------------------|
G#-13~~~~~-----------------13~~~~~-------------------------13~~~~~-|
E -----------------------------------------------------------------|
B -----------------------------------------------------------------|
F#-----------------------------------------------------------------|
B -----------------------------------------------------------------|

Guitar 2
C#---------15~~~~~-13~~~~~-15~~~~~---------15~~~~~-13~~~~~-15~~~~~-|
G#-13~~~~~-------------------------13~~~~~-------------------------|
E -----------------------------------------------------------------|
B -----------------------------------------------------------------|
F#-----------------------------------------------------------------|
B -----------------------------------------------------------------|



Guitar 1
C#-------------------------------------------------11~~~~~-13~~~~~---|
G#-------------------------13~~~~~~~~~~~~~-11h13---------------------|
E -------------------------------------------------------------------|
B -------------------------------------------------------------------|
F#-------------------------------------------------------------------|
B -------------------------------------------------------------------|

Guitar 2
C#---------15~~~~~-13~~~~~-15~~~~~---------------------------------|
G#-13~~~~~---------------------------------------------------------|
E -----------------------------------------------------------------|
B -----------------------------------------------------------------|
F#-----------------------------------------------------------------|
B -----------------------------------------------------------------|


Guitar 1
C#-----------------------------------------------------------------|
G#-13~~~~~-----------------13~~~~~-------------------------13~~~~~-|
E -----------------------------------------------------------------|
B -----------------------------------------------------------------|
F#-----------------------------------------------------------------|
B -----------------------------------------------------------------|

Guitar 2
C#---------15~~~~~-13~~~~~-15~~~~~---------15~~~~~-13~~~~~-15~~~~~-|
G#-13~~~~~-------------------------13~~~~~-------------------------|
E -----------------------------------------------------------------|
B -----------------------------------------------------------------|
F#-----------------------------------------------------------------|
B -----------------------------------------------------------------|

===================================================================

Guitar 1
C#-----------------11~~~~~-----------------------------------------|
G#-11~~~~~-13~~~~~---------13~~~~~~~~~-11--13----------------------|
E -----------------------------------------------------------------|
B -----------------------------------------------------------------|
F#-----------------------------------------------------------------|
B -----------------------------------------------------------------|

Guitar 2
C#---------15~~~~~-13~~~~~-15~~~~~---------------------------------|
G#-13~~~~~---------------------------------------------------------|
E -----------------------------------------------------------------|
B -----------------------------------------------------------------|
F#-----------------------------------------------------------------|
B -----------------------------------------------------------------|

Intro 2

(X2)

Guitar 1
C#-----------------------------------------------------------------|
G#-----------------------------------------------------------------|
E -----------------------------------------------------------------|
B -0~~~~~~~~~~~~~~-0---0---0~~~~~~~~~~-0-------0---0~~~~~~-0---0---|
F#-0~~~~~~~~~~~~~~-0---0---0~~~~~~~~~~-0-------0---0~~~~~~-0---0---|
B -0~~~~~~~~~~~~~~-0---0---0~~~~~~~~~~-0-------0---0~~~~~~-0---0---|
pm                 .   .               .       .           .   .

Guitar 2
C#---------15~~~~~-13~~~~~-----------------15~~~~~-13~~~~~---------|
G#-13~~~~~-----------------13~~~~~~~~~~~~~-----------------13~~~~~-|
E -----------------------------------------------------------------|
B -----------------------------------------------------------------|
F#-----------------------------------------------------------------|
B -----------------------------------------------------------------|

Guitar 1
C#-----------------------------------------------------------------|
G#-----------------------------------------------------------------|
E -----------------------------------------------------------------|
B -8~~~~~~~~~~~~~~-8---8---8~~~~~~~~~~-8-------8---8~~~~~~-8---8---|
F#-8~~~~~~~~~~~~~~-8---8---8~~~~~~~~~~-8-------8---8~~~~~~-8---8---|
B -8~~~~~~~~~~~~~~-8---8---8~~~~~~~~~~-8-------8---8~~~~~~-8---8---|
                   .   .               .       .           .   .
Guitar 2
C#---------15~~~~~-13~~~~~-----------------15~~~~~-13~~~~~---------|
G#-13~~~~~-----------------13~~~~~~~~~~~~~-----------------13~~~~~-|
E -----------------------------------------------------------------|
B -----------------------------------------------------------------|
F#-----------------------------------------------------------------|
B -----------------------------------------------------------------|

Guitar 1
C#-----------------------------------------------------------------|
G#-----------------------------------------------------------------|
E -----------------------------------------------------------------|
B -8~~~~~~~~~~~~~~-5---5---5~~~~~~~~~~-5-------5---5~~~~~~-5---5---|
F#-8~~~~~~~~~~~~~~-5---5---5~~~~~~~~~~-5-------5---5~~~~~~-5---5---|
B -5~~~~~~~~~~~~~~-5---5---5~~~~~~~~~~-5-------5---5~~~~~~-5---5---|
pm                 .   .               .       .           .   .

Guitar 2
C#---------15~~~~~-13~~~~~-----------------15~~~~~-13~~~~~---------|
G#-13~~~~~-----------------13~~~~~~~~~~~~~-----------------13~~~~~-|
E -----------------------------------------------------------------|
B -----------------------------------------------------------------|
F#-----------------------------------------------------------------|
B -----------------------------------------------------------------|

Guitar 1
C#-----------------------------------------------------------------|
G#-----------------------------------------------------------------|
E -----------------------------------------------------------------|
B -8~~~~~~~~~~~~~~-8---8---10~~~~~~~~~-10------10--10~~~~~-10--10--|
F#-8~~~~~~~~~~~~~~-8---8---10~~~~~~~~~-10------10--10~~~~~-10--10--|
B -8~~~~~~~~~~~~~~-8---8---10~~~~~~~~~-10------10--10~~~~~-10--10--|
                   .   .               .       .           .   .

Guitar 2
C#-----------------11~~~~~-13--11------------------11~~~~~-13~~~~~---|
G#-11~~~~~-13~~~~~-----------------11~~~~~-11h13---------------------|
E -------------------------------------------------------------------|
B -------------------------------------------------------------------|
F#-------------------------------------------------------------------|
B -------------------------------------------------------------------|

Verse 1

Guitar 1 & 2
C#-----------------------------------------------------------------|
G#-----------------------------------------------------------------|
E -----------------------------------------------------------------|
B -------------------------------------3---2-------5---3---2-------|
F#-------------------------3---5-------------------------------3---|
B -3h5p3-0~~~~~~~~-0---0-----------0-----------0-------------------|
                   .   .           .           .   .   .   .
Guitar 1
C#-----------------------------------------------------------------|
G#-----------------------------------------------------------------|
E -----------------------------------------------------------------|
B -------------------------------------3---2-----------5~~~~~~~~~~-|
F#-------------------------3---5-------------------3---5~~~~~~~~~~-|
B -3h5p3-0~~~~~~~~-0---0-----------0-----------0-------5~~~~~~~~~~-|
                   .   .           .           .

Guitar 2
C#-----------------------------------------------------------------|
G#-----------------------------------------------------------------|
E -----------------------------------------------------------------|
B -------------------------------------3---2-----------5~~~~~~~~~~-|
F#-3*~~~~~~~~~~~~~---------3---5-------------------3---5~~~~~~~~~~-|
B -----------------0---0-----------0-----------0-------5~~~~~~~~~~-|
                   .   .           .           .


(x4)

Guitar 1 & 2
C#-----------------------------------------------------------------|
G#-----------------------------------------------------------------|
E -----------------------------------------------------------------|
B -------------------------------------3---2-------5---3---2-------|
F#-------------------------3---5-------------------------------3---|
B -3h5p3-0~~~~~~~~-0---0-----------0-----------0-------------------|
                   .   .           .           .   .   .   .

Guitar 1 & 2
C#-----------------------------------------------------------------|
G#-----------------------------------------------------------------|
E -----------------------------------------------------------------|
B -------------------------------------3---2-------3---2-----------|
F#-------------------------3---5---------------------------3---0---|
B -3h5p3-0~~~~~~~~-0---0-----------0-----------0-------------------|
                   .   .           .           .   .   .   .   .
Pre Chorus

Guitar 1 & 2
C#-----------------------------------------------------------------|
G#-----------------------------------------------------------------|
E -2~~~~~~~~~~~~~~-2-------2~~~~~~~~~~~~~~-2-------2~~~~~~-2-------|
B -x---------------x-------x---------------x-------x-------x-------|
F#-3~~~~~~~~~~~~~~-3-------3~~~~~~~~~~~~~~-3-------3~~~~~~-3-------|
B -3~~~~~~~~~~~~~~-3-------3~~~~~~~~~~~~~~-3-------3~~~~~~-3-------|
                   .                       .               .

Guitar 1 & 2
C#-----------------------------------------------------------------|
G#-----------------------------------------------------------------|
E -2~~~~~~~~~~~~~~-2-------2~~~~~~~~~~~~~~-2-------2~~~~~~-2-------|
B -x---------------x-------x---------------x-------x-------x-------|
F#-2~~~~~~~~~~~~~~-2-------2~~~~~~~~~~~~~~-2-------2~~~~~~-2-------|
B -2~~~~~~~~~~~~~~-2-------2~~~~~~~~~~~~~~-2-------2~~~~~~-2-------|
                   .                       .               .


Chorus

(X2)

Guitar 1
C#-----------------------------------------------------------------|
G#-----------------------------------------------------------------|
E -----------------------------------------------------------------|
B -0~~~~~~~~~~~~~~-0---0---0~~~~~~~~~~-0-------0---0~~~~~~-0---0---|
F#-0~~~~~~~~~~~~~~-0---0---0~~~~~~~~~~-0-------0---0~~~~~~-0---0---|
B -0~~~~~~~~~~~~~~-0---0---0~~~~~~~~~~-0-------0---0~~~~~~-0---0---|
                   .   .               .       .           .   .

Guitar 2
C#---------15~~~~~-13~~~~~-----------------15~~~~~-13~~~~~---------|
G#-13~~~~~-----------------13~~~~~~~~~~~~~-----------------13~~~~~-|
E -----------------------------------------------------------------|
B -----------------------------------------------------------------|
F#-----------------------------------------------------------------|
B -----------------------------------------------------------------|



Guitar 1
C#-----------------------------------------------------------------|
G#-----------------------------------------------------------------|
E -----------------------------------------------------------------|
B -8~~~~~~~~~~~~~~-8---8---8~~~~~~~~~~-8-------8---8~~~~~~-8---8---|
F#-8~~~~~~~~~~~~~~-8---8---8~~~~~~~~~~-8-------8---8~~~~~~-8---8---|
B -8~~~~~~~~~~~~~~-8---8---8~~~~~~~~~~-8-------8---8~~~~~~-8---8---|
                   .   .               .       .           .   .

Guitar 2
C#---------15~~~~~-13~~~~~-----------------15~~~~~-13~~~~~---------|
G#-13~~~~~-----------------13~~~~~~~~~~~~~-----------------13~~~~~-|
E -----------------------------------------------------------------|
B -----------------------------------------------------------------|
F#-----------------------------------------------------------------|
B -----------------------------------------------------------------|

Guitar 1
C#-----------------------------------------------------------------|
G#-----------------------------------------------------------------|
E -----------------------------------------------------------------|
B -8~~~~~~~~~~~~~~-5---5---5~~~~~~~~~~-5-------5---5~~~~~~-5---5---|
F#-8~~~~~~~~~~~~~~-5---5---5~~~~~~~~~~-5-------5---5~~~~~~-5---5---|
B -5~~~~~~~~~~~~~~-5---5---5~~~~~~~~~~-5-------5---5~~~~~~-5---5---|
                   .   .               .       .           .   .
Guitar 2
C#---------15~~~~~-13~~~~~-----------------15~~~~~-13~~~~~---------|
G#-13~~~~~-----------------13~~~~~~~~~~~~~-----------------13~~~~~-|
E -----------------------------------------------------------------|
B -----------------------------------------------------------------|
F#-----------------------------------------------------------------|
B -----------------------------------------------------------------|

Guitar 1
C#-----------------------------------------------------------------|
G#-----------------------------------------------------------------|
E -----------------------------------------------------------------|
B -8~~~~~~~~~~~~~~-8---8---10~~~~~~~~~-10------10--10~~~~~-10--10--|
F#-8~~~~~~~~~~~~~~-8---8---10~~~~~~~~~-10------10--10~~~~~-10--10--|
B -8~~~~~~~~~~~~~~-8---8---10~~~~~~~~~-10------10--10~~~~~-10--10--|
                   .   .               .       .           .   .
Guitar 2
C#-----------------11~~~~~-13--11------------------11~~~~~-13~~~~~---|
G#-11~~~~~-13~~~~~-----------------11~~~~~-11h13---------------------|
E -------------------------------------------------------------------|
B -------------------------------------------------------------------|
F#-------------------------------------------------------------------|
B -------------------------------------------------------------------|

Bridge 1


Guitar 1 & 2
C#-----------------------------------------------------------------|
G#-----------------------------------------------------------------|
E -----------------------------------------------------------------|
B -------------------------------------3---2-------5---3---2-------|
F#-------------------------3---5-------------------------------3---|
B -3h5p3-0~~~~~~~~-0---0-----------0-----------0-------------------|
                   .   .           .           .   .   .   .

Guitar 1 & 2
C#-----------------------------------------------------------------|
G#-----------------------------------------------------------------|
E -----------------------------------------------------------------|
B -------------------------------------3---2-------3---2-----------|
F#-------------------------3---5---------------------------3---0---|
B -3h5p3-0~~~~~~~~-0---0-----------0-----------0-------------------|
                   .   .           .           .   .   .   .   .

Guitar 1 & 2
C#-----------------------------------------------------------------|
G#-----------------------------------------------------------------|
E -----------------------------------------------------------------|
B -------------------------------------3---2-------5---3---2-------|
F#-------------------------3---5-------------------------------3---|
B -3h5p3-0~~~~~~~~-0---0-----------0-----------0-------------------|
                   .   .           .           .   .   .   .

Guitar 1
C#-----------------------------------------------------------------|
G#-----------------------------------------------------------------|
E -----------------------------------------------------------------|
B -------------------------------------3---2-----------5~~~~~~~~~~-|
F#-------------------------3---5-------------------3---5~~~~~~~~~~-|
B -3h5p3-0~~~~~~~~-0---0-----------0-----------0-------5~~~~~~~~~~-|
                   .   .           .           .

Guitar 2
C#-----------------------------------------------------------------|
G#-----------------------------------------------------------------|
E -----------------------------------------------------------------|
B -------------------------------------3---2-----------5~~~~~~~~~~-|
F#-3*~~~~~~~~~~~~~---------3---5-------------------3---5~~~~~~~~~~-|
B -----------------0---0-----------0-----------0-------5~~~~~~~~~~-|
                   .   .           .           .


Verse

(x4)

Guitar 1 & 2
C#-----------------------------------------------------------------|
G#-----------------------------------------------------------------|
E -----------------------------------------------------------------|
B -------------------------------------3---2-------5---3---2-------|
F#-------------------------3---5-------------------------------3---|
B -3h5p3-0~~~~~~~~-0---0-----------0-----------0-------------------|
                   .   .           .           .   .   .   .

Guitar 1 & 2
C#-----------------------------------------------------------------|
G#-----------------------------------------------------------------|
E -----------------------------------------------------------------|
B -------------------------------------3---2-------3---2-----------|
F#-------------------------3---5---------------------------3---0---|
B -3h5p3-0~~~~~~~~-0---0-----------0-----------0-------------------|
                   .   .           .           .   .   .   .   .


Pre Chorus

Guitar 1 & 2
C#-----------------------------------------------------------------|
G#-----------------------------------------------------------------|
E -2~~~~~~~~~~~~~~-2-------2~~~~~~~~~~~~~~-2-------2~~~~~~-2-------|
B -x---------------x-------x---------------x-------x-------x-------|
F#-3~~~~~~~~~~~~~~-3-------3~~~~~~~~~~~~~~-3-------3~~~~~~-3-------|
B -3~~~~~~~~~~~~~~-3-------3~~~~~~~~~~~~~~-3-------3~~~~~~-3-------|
                   .                       .               .

Guitar 1 & 2
C#-----------------------------------------------------------------|
G#-----------------------------------------------------------------|
E -2~~~~~~~~~~~~~~-2-------2~~~~~~~~~~~~~~-2-------2~~~~~~-2-------|
B -x---------------x-------x---------------x-------x-------x-------|
F#-2~~~~~~~~~~~~~~-2-------2~~~~~~~~~~~~~~-2-------2~~~~~~-2-------|
B -2~~~~~~~~~~~~~~-2-------2~~~~~~~~~~~~~~-2-------2~~~~~~-2-------|
                   .                       .               .



Chorus

(X2)

Guitar 1
C#-----------------------------------------------------------------|
G#-----------------------------------------------------------------|
E -----------------------------------------------------------------|
B -0~~~~~~~~~~~~~~-0---0---0~~~~~~~~~~-0-------0---0~~~~~~-0---0---|
F#-0~~~~~~~~~~~~~~-0---0---0~~~~~~~~~~-0-------0---0~~~~~~-0---0---|
B -0~~~~~~~~~~~~~~-0---0---0~~~~~~~~~~-0-------0---0~~~~~~-0---0---|
                   .   .               .       .           .   .

Guitar 2
C#---------15~~~~~-13~~~~~-----------------15~~~~~-13~~~~~---------|
G#-13~~~~~-----------------13~~~~~~~~~~~~~-----------------13~~~~~-|
E -----------------------------------------------------------------|
B -----------------------------------------------------------------|
F#-----------------------------------------------------------------|
B -----------------------------------------------------------------|

Guitar 1
C#-----------------------------------------------------------------|
G#-----------------------------------------------------------------|
E -----------------------------------------------------------------|
B -8~~~~~~~~~~~~~~-8---8---8~~~~~~~~~~-8-------8---8~~~~~~-8---8---|
F#-8~~~~~~~~~~~~~~-8---8---8~~~~~~~~~~-8-------8---8~~~~~~-8---8---|
B -8~~~~~~~~~~~~~~-8---8---8~~~~~~~~~~-8-------8---8~~~~~~-8---8---|
                   .   .               .       .           .   .

Guitar 2
C#---------15~~~~~-13~~~~~-----------------15~~~~~-13~~~~~---------|
G#-13~~~~~-----------------13~~~~~~~~~~~~~-----------------13~~~~~-|
E -----------------------------------------------------------------|
B -----------------------------------------------------------------|
F#-----------------------------------------------------------------|
B -----------------------------------------------------------------|

Guitar 1
C#-----------------------------------------------------------------|
G#-----------------------------------------------------------------|
E -----------------------------------------------------------------|
B -8~~~~~~~~~~~~~~-5---5---5~~~~~~~~~~-5-------5---5~~~~~~-5---5---|
F#-8~~~~~~~~~~~~~~-5---5---5~~~~~~~~~~-5-------5---5~~~~~~-5---5---|
B -5~~~~~~~~~~~~~~-5---5---5~~~~~~~~~~-5-------5---5~~~~~~-5---5---|
                   .   .               .       .           .   .

Guitar 2
C#---------15~~~~~-13~~~~~-----------------15~~~~~-13~~~~~---------|
G#-13~~~~~-----------------13~~~~~~~~~~~~~-----------------13~~~~~-|
E -----------------------------------------------------------------|
B -----------------------------------------------------------------|
F#-----------------------------------------------------------------|
B -----------------------------------------------------------------|

Guitar 1
C#-----------------------------------------------------------------|
G#-----------------------------------------------------------------|
E -----------------------------------------------------------------|
B -8~~~~~~~~~~~~~~-8---8---10~~~~~~~~~-10------10--10~~~~~-10--10--|
F#-8~~~~~~~~~~~~~~-8---8---10~~~~~~~~~-10------10--10~~~~~-10--10--|
B -8~~~~~~~~~~~~~~-8---8---10~~~~~~~~~-10------10--10~~~~~-10--10--|
                   .   .               .       .           .   .
Guitar 2
C#-----------------11~~~~~-13--11------------------11~~~~~-13~~~~~---|
G#-11~~~~~-13~~~~~-----------------11~~~~~-11h13---------------------|
E -------------------------------------------------------------------|
B -------------------------------------------------------------------|
F#-------------------------------------------------------------------|
B -------------------------------------------------------------------|


Breakdown

Guitar 1
C#-----------------------------------------------------------------|
G#-----------------------------------------------------------------|
E -----------------------------------------------------------------|
B -0---0-------0---0---0---0---0-------0-------0---3~~~~~~-5~~~~~~-|
F#-0---0-------0---0---0---0---0-------0-------0---3~~~~~~-5~~~~~~-|
B -0---0-------0---0---0---0---0-------0-------0---3~~~~~~-5~~~~~~-|
   .   .       .       .   .   .       .       .

Guitar 1
C#-----------------------------------------------------------------|
G#-----------------------------------------------------------------|
E -----------------------------------------------------------------|
B -0---0-------0---0---0---0---0-------0-------0---3~~~~~~-5~~~~~~-|
F#-0---0-------0---0---0---0---0-------0-------0---3~~~~~~-5~~~~~~-|
B -0---0-------0---0---0---0---0-------0-------0---3~~~~~~-5~~~~~~-|
   .   .       .   .   .   .   .       .       .

Guitar 1
C#-----------------------------------------------------------------|
G#-----------------------------------------------------------------|
E -----------------------------------------------------------------|
B -0---0-------0---0---0---0---0-------0-------0---3~~~~~~-5~~~~~~-|
F#-0---0-------0---0---0---0---0-------0-------0---3~~~~~~-5~~~~~~-|
B -0---0-------0---0---0---0---0-------0-------0---3~~~~~~-5~~~~~~-|
   .   .       .       .   .   .       .       .

Guitar 1
C#-----------------------------------------------------------------|
G#-----------------------------------------------------------------|
E -----------------------------------------------------------------|
B -0---0-------0---0---0---0---0-------0-------0---3~~~~~~-5~~~~~~-|
F#-0---0-------0---0---0---0---0-------0-------0---3~~~~~~-5~~~~~~-|
B -0---0-------0---0---0---0---0-------0-------0---3~~~~~~-5~~~~~~-|
   .   .       .   .   .   .   .       .       .

Guitar 1
C#-----------------------------------------------------------------|
G#-----------------------------------------------------------------|
E -----------------------------------------------------------------|
B -0---0-------0---0---0---0---0-------0-------0---3~~~~~~-5~~~~~~-|
F#-0---0-------0---0---0---0---0-------0-------0---3~~~~~~-5~~~~~~-|
B -0---0-------0---0---0---0---0-------0-------0---3~~~~~~-5~~~~~~-|
   .   .       .       .   .   .       .       .

Guitar 1
C#-----------------------------------------------------------------|
G#-----------------------------------------------------------------|
E -----------------------------------------------------------------|
B -3---3-------3---3~~~~~~-3---3-------2-------2---2~~~~~~-2~~~~~~-|
F#-3---3-------3---3~~~~~~-3---3-------2-------2---2~~~~~~-2~~~~~~-|
B -3---3-------3---3~~~~~~-3---3-------2-------2---2~~~~~~-2~~~~~~-|
 .   .       .           .   .       .       .

Guitar 2
C#-----------------------------------------------------------------|
G#/11~~~~~-11~~~~~-11~~~~~-11~~~~~-11--10~~~~~-6---6~~~~~~~~~~~~~~-|
E -x-------x-------x-------x-------x---x-------x---x---------------|
B /8~~~~~~-8~~~~~~-8~~~~~~-8~~~~~~-8---7~~~~~~-3---3~~~~~~~~~~~~~~-|
F#-----------------------------------------------------------------|
B -----------------------------------------------------------------|

Guitar Solo

Guitar 1
C#-----------------------------------------------------------------|
G#-----------------------------------------------------------------|
E -----------------------------------------------------------------|
B -0---0-------0---0---0---0---0-------0-------0---3~~~~~~-5~~~~~~-|
F#-0---0-------0---0---0---0---0-------0-------0---3~~~~~~-5~~~~~~-|
B -0---0-------0---0---0---0---0-------0-------0---3~~~~~~-5~~~~~~-|
   .   .       .       .   .   .       .       .

Guitar 2
C#-----------------------------------------------------------------|
G#---------------------------------13--13--------------------------|
E -10--------------10--10--------------------------10--10----------|
B -----0---0---0-----------0---0-----------0---0-----------0---0---|
F#-----------------------------------------------------------------|
B -----------------------------------------------------------------|
       .   .   .           .   .           .   .           .   .


Guitar 1
C#-----------------------------------------------------------------|
G#-----------------------------------------------------------------|
E -----------------------------------------------------------------|
B -0---0-------0---0---0---0---0-------0-------0---3~~~~~~-5~~~~~~-|
F#-0---0-------0---0---0---0---0-------0-------0---3~~~~~~-5~~~~~~-|
B -0---0-------0---0---0---0---0-------0-------0---3~~~~~~-5~~~~~~-|
   .   .       .   .   .   .   .       .       .

Guitar 2
C#-----------------------------------------------------------------|
G#---------------------------------13------------------------------|
E -14--14----------10------------------------------10--12--12b~r~~-|
B ---------0---0-------0---0---0-------0---0---0-------------------|
F#-----------------------------------------------------------------|
B -----------------------------------------------------------------|
           .   .       .   .   .       .   .   .


Guitar 1
C#-----------------------------------------------------------------|
G#-----------------------------------------------------------------|
E -----------------------------------------------------------------|
B -0---0-------0---0---0---0---0-------0-------0---3~~~~~~-5~~~~~~-|
F#-0---0-------0---0---0---0---0-------0-------0---3~~~~~~-5~~~~~~-|
B -0---0-------0---0---0---0---0-------0-------0---3~~~~~~-5~~~~~~-|
   .   .       .       .   .   .       .       .

Guitar 2
C#-----------------------------------------------------------------|
G#---------------------------------13--13--------------------------|
E -10--------------10--10--------------------------10--10----------|
B -----0---0---0-----------0---0-----------0---0-----------0---0---|
F#-----------------------------------------------------------------|
B -----------------------------------------------------------------|
       .   .   .           .   .           .   .           .   .

Guitar 1
C#-----------------------------------------------------------------|
G#-----------------------------------------------------------------|
E -----------------------------------------------------------------|
B -3---3-------3---3~~~~~~-3---3-------2-------2---2~~~~~~-2~~~~~~-|
F#-3---3-------3---3~~~~~~-3---3-------2-------2---2~~~~~~-2~~~~~~-|
B -3---3-------3---3~~~~~~-3---3-------2-------2---2~~~~~~-2~~~~~~-|
   .   .       .           .   .       .       .

Guitar 2
C#-----------------------------------------------------------------|
G#-----------------------------------------------------------------|
E -14--15--14--12--14h15p14p12-----10------10--12~~~~~~~~~~~~~~~~~-|
B -----------------------------12------12--------------------------|
F#-----------------------------------------------------------------|
B -----------------------------------------------------------------|
                               .       .

Guitar 1
C#-----------------------------------------------------------------|
G#-----------------------------------------------------------------|
E -----------------------------------------------------------------|
B -0---0-------0---0---0---0---0-------0-------0---3~~~~~~-5~~~~~~-|
F#-0---0-------0---0---0---0---0-------0-------0---3~~~~~~-5~~~~~~-|
B -0---0-------0---0---0---0---0-------0-------0---3~~~~~~-5~~~~~~-|
   .   .       .       .   .   .       .       .

Guitar 2
C#-----------------------------------------------------------------|
G#-15--18------15--13----------------------------------------------|
E ---------14----------12--14--12--10--14--12------10--------------|
B ---------------------------------------------10------12----------|
F#---------------------------------------------------------12--14--|
B -----------------------------------------------------------------|
           .           .   .   .   .   .   .   .       .   .   .

Guitar 1
C#-----------------------------------------------------------------|
G#-----------------------------------------------------------------|
E -----------------------------------------------------------------|
B -0---0-------0---0---0---0---0-------0-------0---3~~~~~~-5~~~~~~-|
F#-0---0-------0---0---0---0---0-------0-------0---3~~~~~~-5~~~~~~-|
B -0---0-------0---0---0---0---0-------0-------0---3~~~~~~-5~~~~~~-|
   .   .       .   .   .   .   .       .       .

Guitar 2
C#-----------------------------------------------------------------|
G#-15--18------15--13----------------------------------------------|
E ---------14----------12--14--12--10--14--12------10--------------|
B ---------------------------------------------10------12----------|
F#---------------------------------------------------------12--14--|
B -----------------------------------------------------------------|
           .           .   .   .   .   .   .   .       .   .   .


Guitar 1
C#-----------------------------------------------------------------|
G#-----------------------------------------------------------------|
E -----------------------------------------------------------------|
B -0---0-------0---0---0---0---0-------0-------0---3~~~~~~-5~~~~~~-|
F#-0---0-------0---0---0---0---0-------0-------0---3~~~~~~-5~~~~~~-|
B -0---0-------0---0---0---0---0-------0-------0---3~~~~~~-5~~~~~~-|
   .   .       .       .   .   .       .       .

Guitar 2
C#-----------------------------------------------------------------|
G#-15--18------15--13--------------------------13----------13~~~~~-|
E ---------14----------12--14--13--12--14--13------14--------------|
B -----------------------------------------------------15----------|
F#-----------------------------------------------------------------|
B -----------------------------------------------------------------|
           .           .   .   .   .   .   .       .   .


Guitar 1
C#-----------------------------------------------------------------|
G#-----------------------------------------------------------------|
E -----------------------------------------------------------------|
B -3---3-------3---3~~~~~~-3---3-------2-------2---2~~~~~~-2~~~~~~-|
F#-3---3-------3---3~~~~~~-3---3-------2-------2---2~~~~~~-2~~~~~~-|
B -3---3-------3---3~~~~~~-3---3-------2-------2---2~~~~~~-2~~~~~~-|
   .   .       .           .   .       .       .

Guitar 2
C#-----------------15------17------18-----17h18p17-15--------18-20-|
G#-15--18--15----------15------15------15-------------18-20--------|
E -------------17--------------------------------------------------|
B -----------------------------------------------------------------|
F#-----------------------------------------------------------------|
B -----------------------------------------------------------------|


Bridge 2

Guitar 1
C#-----------------------------------------------------------------|
G#-----------------------------------------------------------------|
E -----------------------------------------------------------------|
B -------------------------------------3---2-------5---3---2-------|
F#-------------------------3---5-------------------------------3---|
B -3h5p3-0~~~~~~~~-0---0-----------0-----------0-------------------|
                   .   .           .           .   .   .   .

Guitar 2
C#-21b~~~~~~~~~~~~~~~~~~~~~~~~~~~~~~~~~~~~~~~~~~~~~~~~~~~~~~~~~~~~-
G#-----------------------------------------------------------------|
E -----------------------------------------------------------------|
B -----------------------------------------------------------------|
F#-----------------------------------------------------------------|
B -----------------------------------------------------------------|


Guitar 1
C#-----------------------------------------------------------------|
G#-----------------------------------------------------------------|
E -----------------------------------------------------------------|
B -------------------------------------3---2-----------5~~~~~~~~~~-|
F#-------------------------3---5-------------------3---5~~~~~~~~~~-|
B -3h5p3-0~~~~~~~~-0---0-----------0-----------0-------5~~~~~~~~~~-|
                   .   .           .           .

Guitar 2
C#-21b~~~~~~~~~~~~~~~~~~~~~~~~~~~~~--------------------------------|
G#-----------------------------------------------------------------|
E -----------------------------------------------------------------|
B -----------------------------------------------------------------|
F#-----------------------------------------------------------------|
B -----------------------------------------------------------------|


Interlude

(X2)

Guitar 1
C#-----------------------------------------------------------------|
G#-----------------------------------------------------------------|
E -----------------------------------------------------------------|
B -0~~~~~~~~~~~~~~-0---0---0~~~~~~~~~~-0-------0---0~~~~~~-0---0---|
F#-0~~~~~~~~~~~~~~-0---0---0~~~~~~~~~~-0-------0---0~~~~~~-0---0---|
B -0~~~~~~~~~~~~~~-0---0---0~~~~~~~~~~-0-------0---0~~~~~~-0---0---|
                   .   .               .       .           .   .

Guitar 2
C#---------15~~~~~-13~~~~~-----------------15~~~~~-13~~~~~---------|
G#-13~~~~~-----------------13~~~~~~~~~~~~~-----------------13~~~~~-|
E -----------------------------------------------------------------|
B -----------------------------------------------------------------|
F#-----------------------------------------------------------------|
B -----------------------------------------------------------------|


Guitar 1
C#-----------------------------------------------------------------|
G#-----------------------------------------------------------------|
E -----------------------------------------------------------------|
B -8~~~~~~~~~~~~~~-8---8---8~~~~~~~~~~-8-------8---8~~~~~~-8---8---|
F#-8~~~~~~~~~~~~~~-8---8---8~~~~~~~~~~-8-------8---8~~~~~~-8---8---|
B -8~~~~~~~~~~~~~~-8---8---8~~~~~~~~~~-8-------8---8~~~~~~-8---8---|
                   .   .               .       .           .   .

Guitar 2
C#---------15~~~~~-13~~~~~-----------------15~~~~~-13~~~~~---------|
G#-13~~~~~-----------------13~~~~~~~~~~~~~-----------------13~~~~~-|
E -----------------------------------------------------------------|
B -----------------------------------------------------------------|
F#-----------------------------------------------------------------|
B -----------------------------------------------------------------|


Guitar 1
C#-----------------------------------------------------------------|
G#-----------------------------------------------------------------|
E -----------------------------------------------------------------|
B -8~~~~~~~~~~~~~~-5---5---5~~~~~~~~~~-5-------5---5~~~~~~-5---5---|
F#-8~~~~~~~~~~~~~~-5---5---5~~~~~~~~~~-5-------5---5~~~~~~-5---5---|
B -5~~~~~~~~~~~~~~-5---5---5~~~~~~~~~~-5-------5---5~~~~~~-5---5---|
                   .   .               .       .           .   .

Guitar 2
C#---------15~~~~~-13~~~~~-----------------15~~~~~-13~~~~~---------|
G#-13~~~~~-----------------13~~~~~~~~~~~~~-----------------13~~~~~-|
E -----------------------------------------------------------------|
B -----------------------------------------------------------------|
F#-----------------------------------------------------------------|
B -----------------------------------------------------------------|

Guitar 1
C#-----------------------------------------------------------------|
G#-----------------------------------------------------------------|
E -----------------------------------------------------------------|
B -8~~~~~~~~~~~~~~-8---8---10~~~~~~~~~-10------10--10~~~~~-10--10--|
F#-8~~~~~~~~~~~~~~-8---8---10~~~~~~~~~-10------10--10~~~~~-10--10--|
B -8~~~~~~~~~~~~~~-8---8---10~~~~~~~~~-10------10--10~~~~~-10--10--|
                   .   .               .       .           .   .

Guitar 2
C#-----------------11~~~~~-13--11------------------11~~~~~-13~~~~~---|
G#-11~~~~~-13~~~~~-----------------11~~~~~-11h13---------------------|
E -------------------------------------------------------------------|
B -------------------------------------------------------------------|
F#-------------------------------------------------------------------|
B -------------------------------------------------------------------|



Chorus

(X2)

Guitar 1
C#-----------------------------------------------------------------|
G#-----------------------------------------------------------------|
E -----------------------------------------------------------------|
B -0~~~~~~~~~~~~~~-0---0---0~~~~~~~~~~-0-------0---0~~~~~~-0---0---|
F#-0~~~~~~~~~~~~~~-0---0---0~~~~~~~~~~-0-------0---0~~~~~~-0---0---|
B -0~~~~~~~~~~~~~~-0---0---0~~~~~~~~~~-0-------0---0~~~~~~-0---0---|
                   .   .               .       .           .   .

Guitar 2
C#---------15~~~~~-13~~~~~-----------------15~~~~~-13~~~~~---------|
G#-13~~~~~-----------------13~~~~~~~~~~~~~-----------------13~~~~~-|
E -----------------------------------------------------------------|
B -----------------------------------------------------------------|
F#-----------------------------------------------------------------|
B -----------------------------------------------------------------|


Guitar 1
C#-----------------------------------------------------------------|
G#-----------------------------------------------------------------|
E -----------------------------------------------------------------|
B -8~~~~~~~~~~~~~~-8---8---8~~~~~~~~~~-8-------8---8~~~~~~-8---8---|
F#-8~~~~~~~~~~~~~~-8---8---8~~~~~~~~~~-8-------8---8~~~~~~-8---8---|
B -8~~~~~~~~~~~~~~-8---8---8~~~~~~~~~~-8-------8---8~~~~~~-8---8---|
                   .   .               .       .           .   .

Guitar 2
C#---------15~~~~~-13~~~~~-----------------15~~~~~-13~~~~~---------|
G#-13~~~~~-----------------13~~~~~~~~~~~~~-----------------13~~~~~-|
E -----------------------------------------------------------------|
B -----------------------------------------------------------------|
F#-----------------------------------------------------------------|
B -----------------------------------------------------------------|


Guitar 1
C#-----------------------------------------------------------------|
G#-----------------------------------------------------------------|
E -----------------------------------------------------------------|
B -8~~~~~~~~~~~~~~-5---5---5~~~~~~~~~~-5-------5---5~~~~~~-5---5---|
F#-8~~~~~~~~~~~~~~-5---5---5~~~~~~~~~~-5-------5---5~~~~~~-5---5---|
B -5~~~~~~~~~~~~~~-5---5---5~~~~~~~~~~-5-------5---5~~~~~~-5---5---|
                   .   .               .       .           .   .

Guitar 2
C#---------15~~~~~-13~~~~~-----------------15~~~~~-13~~~~~---------|
G#-13~~~~~-----------------13~~~~~~~~~~~~~-----------------13~~~~~-|
E -----------------------------------------------------------------|
B -----------------------------------------------------------------|
F#-----------------------------------------------------------------|
B -----------------------------------------------------------------|


Guitar 1 (echo Effect on last Note)
C#-----------------------------------------------------------------|
G#-----------------------------------------------------------------|
E -----------------------------------------------------------------|
B -8~~~~~~~~~~~~~~-8---8---10~~~~~~~~~~~~~~~~~~~~~~~~~~~~~~\~~~~~~-|
F#-8~~~~~~~~~~~~~~-8---8---10~~~~~~~~~~~~~~~~~~~~~~~~~~~~~~\~~~~~~-|
B -8~~~~~~~~~~~~~~-8---8---10~~~~~~~~~~~~~~~~~~~~~~~~~~~~~~\~~~~~~-|
                   .   .

Guitar 2 (echo Effect on last 2 Notes)
C#-----------------11~~~~~-13--11------------------11~~~~~-13~~~~~---|
G#-11~~~~~-13~~~~~-----------------11~~~~~-11h13---------------------|
E -------------------------------------------------------------------|
B -------------------------------------------------------------------|
F#-------------------------------------------------------------------|
B -------------------------------------------------------------------|





Comments


Popular Five Finger Death Punch tabs & chords
Bulletproof Bass Tabs
Hate Me Bass Tabs
Never Enough Bass Tabs
Never Enough 2 Bass Tabs
Ashes Tabs
Bleeding 2 Tabs
Bulletproof Tabs
Hard To See 1 Tabs
The Way Of The Fist 1 Tabs
Under And Over It Tabs


Song lyrics



↑ Back to top | Tablatures and chords are parodies/interpretations of the original songs. You may use it for private study, scholarship, research or language learning purposes only
© 2014 AZChords.com Contact us | Privacy policy | DMCA | Add/correct tabs | Request tabs | Top 50 tabs