» » »

No One Gets Left Behind Tabs (ver.1)

Artists:  A B C D E F G H I J K L M N O P Q R S T U V W X Y Z # 

No One Gets Left Behind Tabs (ver.1)

Five Finger Death Punch
Rating:
0/5 (0 votes)

Hard to play? Try these video lessons and learn fast.
                Tuning (lowest to highest) B-F#-B-E-G#-C#
Intro pt 1
C# ------------------------------------------------------------------|
G# ------------------------------------------------------------------|
E    ---17-16---17-16---17-16---17-16--17-16-------17-16-------------|
B    14-------14------14------14-------14-------14-14----------------| repeat
F#  -----------------------------------------------------------------|
B    ----------------------------------------------------------------|

Intro pt 2
C# ------------------------------------------------------|
G# ------------------------------------------------------|
E    ----------------------------------------------------|
B    0--2-3-2--0-2---------------------------------------| repeat
F#  0--2-3-2--0-2----------------------------------------|
B    0--2-3-2--0-2-0--0--0--0-0-0-0-4-3-2-1--------------|
                            |-Palm mute------------------|
Verse pt 1
repeat intro pt 2
(starting at "no one gets left behind...")

Verse pt 2
repeat intro pt 1
(starting at "politicians...")

Chorus
C# ---------------------------------------------------------------|
G# --------------------8--8-10--------------------8--8-10---------|
E    7--9-9--7-9--9-9---------7--9-9--7-9--9-9--------------------|
B    -------------------------------------------------------------|
F# ---------------------------------------------------------------|
B    -------------------------------------------------------------|

C# ---------------------------------------------|
G# ---------------------------------------------|
E    7--9-9--7-9--9-7--9-7----------------------|
B    -------------------------10--9-------------| repeat
F# --------------------------------12--10-------|
B    -------------------------------------------|

Verse 2 pt 1
repeat Verse pt 1 (starting at "no one gets left behind...")

Verse 2 pt 2
repeat Verse pt 2 (starting at "play your war games...")

Chorus 2
repeat chorus (starting at "have you no honor...")

Bridge
C# -------------------------------------------------------------------------------|
G# -------------------------------------------------------------------------------|
E    -----------------------------------------------------------------------------|
B    0-3-2-0-3-2-0-3-2-0-3---0-3-2-0-3-2-0-3-2-0-3--------------------------------|
F#  0-3-2-0-3-2-0-3-2-0-3---0-3-2-0-3-2-0-3-2-0-3---------------------------------|
B    0-3-2-0-3-2-0-3-2-0-3---0-3-2-0-3-2-0-3-2-0-3--------------------------------|
     |-Palm mute------------------------------------------------------------------|

C# -------------------------------------------------------------------------------|
G# -------------------------------------------------------------------------------|
E    -----------------------------------------------------------------------------|
B    0-3-2-0-3-2-0-3-2-0-3--0-3-2-0-3-2-0-3-2-0-3-2-0-3-2-0-3-2-0-0---------------|
F#  0-3-2-0-3-2-0-3-2-0-3--0-3-2-0-3-2-0-3-2-0-3-2-0-3-2-0-3-2-0-0----------------|
B    0-3-2-0-3-2-0-3-2-0-3--0-3-2-0-3-2-0-3-2-0-3-2-0-3-2-0-3-2-0-0---------------|
     |-Palm mute------------------------------------------------------------------|
             repeat

C# -----------------------------------------------------|
G# -----------------------------------------------------|
E    ---17-16---17-16---17-16---17-16---17-16-----------|
B    14-------14------14-------14-------14--------------|
F# -----------------------------------------------------|
B    ---------------------------------------------------|

Chorus
repeat Chorus (starting at "have you no honor...")

Outro pt 1
repeat Intro pt 2

Outro pt 2
repeat Intro pt 1
            
Hard to play? Try these video lessons and learn fast. | Correct




comments powered by Disqus
↑ Back to top | Tablatures and chords are parodies/interpretations of the original songs. You may use it for private study, scholarship, research or language learning purposes only