» » »

My Own Hell Tabs (ver.1)

Artists:  A B C D E F G H I J K L M N O P Q R S T U V W X Y Z # 

My Own Hell Tabs (ver.1)

Five Finger Death Punch
Rating:
0/5 (0 votes)

Hard to play? Try these video lessons and learn fast.
                
Tuning: Drop B 

It's hard to put the palm muting in the right spot so I'll let you figure it out 
(it's obvious where it's palm muted)

e|--------------------------------------------|
B|--------------------------------------------|
G|--------------------------------------------|
D|--------------------------------------------|
A|-3-0-2-0-1-0-3-0-2-0-1-0-3-0-2-0-1-00000000-|
E|-3-0-2-0-1-0-3-0-2-0-1-0-3-0-2-0-1-00000000-|



e|------------------------------------------|
B|------------------------------------------|
G|------------------------------------------|
D|------------3-----------------------------|
A|-5----------1----------3---------5--------|
E|-5---------------------3---------5--------|
 |
e|-----------------------------------------------------|
B|-----------------/6-6-6--6-6/8-----------------------|
G|-/7~~5--5--5/7~~~-------5~------7~~--/8-7-5--5-------|
D|-------------------------------------------8--8-7-5--|
A|-----------------------------------------------------|
E|-----------------------------------------------------|
  
e|------------------------------------------|
B|------------------------------------------|
G|------------------------------------------|
D|------------3-----------------------------|
A|-5----------1----------3---------5--------|
E|-5---------------------3---------5--------|
 |
e|---------------------------------------|
B|-----------------/6-6-6---6-6/8-8~~~~--|
G|-/7~~5--5--5/7~~~-------5~-------------|
D|---------------------------------------|
A|---------------------------------------|
E|---------------------------------------|
 |
e|-----------------------------------------------|
B|-------------------18-18-18----18-18/20-20~~~~-|
G|-/19~~17-17-17/19~~---------17-----------------|
D|-----------------------------------------------|
A|-----------------------------------------------|
E|-----------------------------------------------|  




e|-----------------------------------------------------|
B|-----------------------------------------------------|
G|-----------------------------------------------------|
D|-----------------------------------------------------|
A|-0000-0000-00000000-0000-00000000-0000-00000000-0000-|
E|-0000-0000-00000000-0000-00000000-0000-00000000-0000-|

e|------------------------------------------------------|
B|------------------------------------------------------|
G|------------------------------------------------------|
D|------------------------------------------------------|
A|-00000000-0000-00000000-0000-00000000-0000-00000000-0-|
E|-00000000-0000-00000000-0000-00000000-0000-00000000-0-| X2  



e|------------------------------------------|
B|------------------------------------------|
G|------------------------------------------|
D|------------3-----------------------------|
A|-5----------1----------3---------5--------|
E|-5---------------------3---------5--------|
 |
e|-------------------------------------------------------------|
B|-------------------------------------------------------------|
G|-------------------------------------------------------------|
D|-5-8-7-8-5--5-8-7-8-5--5-8-7-8--5-8-7-8-5--5-8-7-8-5--5-8-7--|
A|------------------------------------------------------------8|
E|-------------------------------------------------------------|

e|-----------------------------------------------------------------|
B|-----------------------------------------------------------------|
G|---5-----------5----------5--------------------------------------|
D|-----7-8---------7-8--------7-8--5-8-7-8-5--5-8-7-8-5--5-8-7-8-5-|
A|--8-------8--8-------8--8----------------------------------------|
E|-----------------------------------------------------------------|
 |
e|-----------------------------------------------------|
B|-----------------/6-6-6--6-6/8-----------------------|
G|-/7~~5--5--5/7~~~-------5~------7~~--/8-7-5--5-------|
D|-------------------------------------------8--8-7-5--|
A|-----------------------------------------------------|
E|-----------------------------------------------------| X2


e|--------------------------------------------|
B|--------------------------------------------|
G|--------------------------------------------|
D|--------------------------------------------|
A|-3-0-2-0-1-0-3-0-2-0-1-0-3-0-2-0-1-00000000-|
E|-3-0-2-0-1-0-3-0-2-0-1-0-3-0-2-0-1-00000000-|



e|-----------------------------------------------------|
B|-----------------------------------------------------|
G|-----------------------------------------------------|
D|-----------------------------------------------------|
A|-0000-0000-00000000-0000-00000000-0000-00000000-0000-|
E|-0000-0000-00000000-0000-00000000-0000-00000000-0000-|

e|------------------------------------------------------|
B|------------------------------------------------------|
G|------------------------------------------------------|
D|------------------------------------------------------|
A|-00000000-0000-00000000-0000-00000000-0000-00000000-0-|
E|-00000000-0000-00000000-0000-00000000-0000-00000000-0-| X2 




e|------------------------------------------|
B|------------------------------------------|
G|------------------------------------------|
D|------------3-----------------------------|
A|-5----------1----------3---------5--------|
E|-5---------------------3---------5--------|
 |
e|-------------------------------------------------------------|
B|-------------------------------------------------------------|
G|-------------------------------------------------------------|
D|-5-8-7-8-5--5-8-7-8-5--5-8-7-8--5-8-7-8-5--5-8-7-8-5--5-8-7--|
A|------------------------------------------------------------8|
E|-------------------------------------------------------------|

e|-----------------------------------------------------------------|
B|-----------------------------------------------------------------|
G|---5-----------5----------5--------------------------------------|
D|-----7-8---------7-8--------7-8--5-8-7-8-5--5-8-7-8-5--5-8-7-8-5-|
A|--8-------8--8-------8--8----------------------------------------|
E|-----------------------------------------------------------------|
 |
e|-----------------------------------------------------|
B|-----------------/6-6-6--6-6/8-----------------------|
G|-/7~~5--5--5/7~~~-------5~------7~~--/8-7-5--5-------|
D|-------------------------------------------8--8-7-5--|
A|-----------------------------------------------------|
E|-----------------------------------------------------| X2



e|----------------------------------------------------------|    
B|----------------------------------------------------------| 
G|----------------------------------------------------------|
D|----------------------------------------------------------| 
A|-0000--0000--0000-0000-0000--0000--0000--3333222211110000-| 
E|-0000--0000--0000-0000-0000--0000--0000--3333222211110000-| X6

 e|------------------|
B|------------------|
G|------------------|
D|------------------|
A|-/6-5-3---3-------|
E |--------8---8-7-5-| (5th time only)

e|------------------------------------------|
B|------------------------------------------|
G|------------------------------------------|
D|------------3-----------------------------|
A|-5----------1----------3---------5--------|
E|-5---------------------3---------5--------|
 |
e|-------------------------------------------------------------|
B|-------------------------------------------------------------|
G|-------------------------------------------------------------|
D|-5-8-7-8-5--5-8-7-8-5--5-8-7-8--5-8-7-8-5--5-8-7-8-5--5-8-7--|
A|------------------------------------------------------------8|
E|-------------------------------------------------------------|

e|-----------------------------------------------------------------|
B|-----------------------------------------------------------------|
G|---5-----------5----------5--------------------------------------|
D|-----7-8---------7-8--------7-8--5-8-7-8-5--5-8-7-8-5--5-8-7-8-5-|
A|--8-------8--8-------8--8----------------------------------------|
E|-----------------------------------------------------------------|
 |
e|-----------------------------------------------------|
B|-----------------/6-6-6--6-6/8-----------------------|
G|-/7~~5--5--5/7~~~-------5~------7~~--/8-7-5--5-------|
D|-------------------------------------------8--8-7-5--|
A|-----------------------------------------------------|
E|-----------------------------------------------------| X2


e|-------------------------------------------------------------|
B|-------------------------------------------------------------|
G|-------------------------------------------------------------|
D|-5-8-7-8-5--5-8-7-8-5--5-8-7-8--5-8-7-8-5--5-8-7-8-5--5-8-7--|
A|------------------------------------------------------------8|
E|-------------------------------------------------------------|

e|-----------------------------------------------------------------|
B|-----------------------------------------------------------------|
G|---5-----------5----------5--------------------------------------|
D|-----7-8---------7-8--------7-8--5-8-7-8-5--5-8-7-8-5--5-8-7-8-5-|
A|--8-------8--8-------8--8----------------------------------------|
E|-----------------------------------------------------------------|
 |


************************************
| .  Palm Mute
| /   slide up
| \   slide down
| h   hammer-on
| p   pull-off
| ~   vibrato
| +   harmonic
| x   Mute note
| b   Bend
| pb  Pre-bend
| br  Bend release
| pbr Pre-bend release
| brb Bend release bend

************************************
            
Hard to play? Try these video lessons and learn fast. | Correct




comments powered by Disqus
↑ Back to top | Tablatures and chords are parodies/interpretations of the original songs. You may use it for private study, scholarship, research or language learning purposes only