» » »

Bleeding Tabs (ver.1)

Artists:  A B C D E F G H I J K L M N O P Q R S T U V W X Y Z # 

Bleeding Tabs (ver.1)

Five Finger Death Punch
Rating:
1/5 (7 votes)

Hard to play? Try these video lessons and learn fast.
                (Intro)
intro is in standard E tuning. and i believe that guitar 2 is in droped e flat.. not too
sure as to what g. 2 is playing yet. all i know is that the second guitar kicks in
the 5th measure. will update later date. I have seen other tabs for this and i believe 

e|-------------------------------------|--------------------------------|
b|-------------------------------------|--------------------------------|
g|----------8-----9-----8-----9-----9p8|--------6---7---6---7---6h7p6---|
d|---8/10-10-10-10-10-10-10-10-10-10---|---6/8-8-8-8-8-8-8-8-8-8--------|
a|-------------------------------------|--------------------------------|
e|-------------------------------------|--------------------------------|


e|------------------------------------|-------------------------------|
b|------------------------------------|-------------------------------|
g|--------8-----9-----8-----9-----8---|------6---7---6---7---6h7------|
d|---10-10-10-10-10-10-10-10-10-10----|---8-8-8-8-8-8-8-8-8-8---------|
a|------------------------------------|-------------------------------|
e|------------------------------------|-------------------------------|


e|-------------------------------------|-------------------------------|
b|-------------------------------------|-------------------------------|
g|----------8-----9-----8-----9-----9p8|--------6---7---6---7---6h7p6--|
d|---8/10-10-10-10-10-10-10-10-10-10---|---6/8-8-8-8-8-8-8-8-8-8-------|
a|-------------------------------------|-------------------------------|
e|-------------------------------------|-------------------------------|


e|------------------------------------|-------------------------------|
b|------------------------------------|-------------------------------|
g|--------8-----9-----8-----9-----8---|------6---7---6---7---6h7------|
d|---10-10-10-10-10-10-10-10-10-10----|---8-8-8-8-8-8-8-8-8-8---------|
a|------------------------------------|-------------------------------|
e|------------------------------------|-------------------------------|


and when it kicks in is where i lose it at so on a later date i will be updating
            
Hard to play? Try these video lessons and learn fast. | Correct




comments powered by Disqus
↑ Back to top | Tablatures and chords are parodies/interpretations of the original songs. You may use it for private study, scholarship, research or language learning purposes only