» » »

Rock On The Radio Tabs (ver.1)

Artists:  A B C D E F G H I J K L M N O P Q R S T U V W X Y Z # 

Rock On The Radio Tabs (ver.1)

Firehouse
Rating:
0/5 (0 votes)

Hard to play? Try these video lessons and learn fast.
                PTL         Firehouse- rock on radio
          From the album Firehouse 1991

By Sanjeev George and Thomas George


Tune down half step  Eb Ab Db Gb Bb eb
Hope it’s correct

INTRO:

eb|----------------------|
Bb|----------------------|
Gb|----------------------|
Db|--s5~-----7---2~------| repeat 3 times 
Ab|--s5~-----7---2~------|
Eb|--s3~-----5---0~------|

On the 4th time

|-------------------15-15-15—19v-----------|
|----------15-15-15------------------------|
|------------------------------------------|
|--5~--------------------------------------|
|--5~--------------------------------------|
|--3~--------------------------------------|

Riff A                                        Yeah Yeah!!
|---------------------------------------------------------|
|---------------------------------------------------------|
|------------------------------------2b+------------------|
|--0-2-x-2--2-2—7s8s7--5-7-5-----0-2-----5--7--5---2~-----|
|--0-2-x-2--2-2—7s8s7--5-7-5-----0-2-----5--7--5---2~-----|
|---------------5s6s5--------------------3--5--3----------|

Verse 1

This is played during verse 1 (listen to song)

|-----------------------x-x--x-x-----------|-------------------|
|-----------------------x-x--x-x-----------|-------------------|
|--2b+------------------x-x--x-x-----------|--scr*pe strings---|
|------5---7-5---2~-----x-x--x-x---5---2~--|-------------------|
|------5---7-5---2~-----x-x--x-x---5---2~--|-------------------|
|------3---5-3----------x-x--x-x---3-------|-------------------|

Pre chorus:   so c’mon c’mon!!!!!!!!!!!

|----------3-3-3---------------3-3-3-----------|
|----------3-3-3---------------3-3-3-----------| Repeat twice
|----------3-3-3---------------3-3-3-----------|
|------5---5-5-5-5s7s5---------5-5-5-----5-----|
|------5---5-5-5-5s7s5---------5-5-5—5s7-------|
|------3---3-3-3—3s5s3------3--3-3-3-----------|


|------5-5-5-------------5-5-5---------------------|
|------5-5-5-------------5-5-5---------------------|
|------5-5-5-------------5-5-5---------------------|
|------7-7-7—-7s9s7------7-7-7-----7----7*5*7------|
|------7-7-7--7s9s7------7-7-7-7s9------7*5*7------|
|---5--5-5-5—-5s7s5----5-5-5-5----------5*3*5------|


Chorus (repeat as required)    Rock on Radio!!!!!!!!
|------------------------------------------|
|------------------------------------------|
|------------------------------------------|
|---0--2-----5--2-----7~----9--------------|
|---0--2-----5--2-----7~----9--------------|
|------------3--------5~----7--------------|
              .              .             



Licks played during 2nd verse


this may be a whammy trick only
|-----------|
|-----------|
|---9+------|
|-----------|
|-----------|
|-----------|


|---------------------------|
|---------------8-----10-8v-|
|---9+----9p7-----9p7-------|
|-------------7-------------|
|---------------------------|
|---------------------------|

|-----------------------------------------------------------|
|---------------8v----------8-10b12—12r10---8---7-----------|
|---7b9r7b9r7-----------7s9-------------------------7-9-9v--|
|-------------9---------------------------------------------|
|-----------------------------------------------------------|
|-----------------------------------------------------------|


Intro
Riff A
Verse 1
Pre chorus
Chorus
Riff A
Verse 2
Pre chorus
Chorus
Solo   chords played are C5 B5 A5 D5 E5
                         C5 B5 A5 D5 B5 A5 G5 E5
Chorus till end

End with

D|------------------------------------------------------|
A|------------------------------------------------------|
F|------------------------------------------------------|
C|--0--2---5--2-------2~--------------------------------|
G|--0--2---5--2-------2~--------------------------------|
D|---------3--------------------------------------------|
      .     .            ROCK ROCK!!!!!!!!!!!!

Notations used

| s  slide up or down as required
| h  hammer-on
| p  pull-off
| v  vibrato
| +  pinch harmonic
| x  Mute note
| ~  Let ring
| .  Mute with fretting hand after playing
| *  Drop notes with tremolo, and then bring back to previous note
            
Hard to play? Try these video lessons and learn fast. | Correct




comments powered by Disqus
↑ Back to top | Tablatures and chords are parodies/interpretations of the original songs. You may use it for private study, scholarship, research or language learning purposes only