>
 >
All She Wrote

All She Wrote Bass Tabs

Firehouse - All She Wrote chords, tabs, tablatures, lyrics

Guitar lessons | Add/correct | Request | Top 50 tabs Artists:  A B C D E F G H I J K L M N O P Q R S T U V W X Y Z 0-9

All She Wrote Bass Tabs – Firehouse

CD, Sheet music, Poster

Do you like All She Wrote? Share with your friends now
Bass Tabs
Artist-Firehouse
Song-All she wrote

Dropped D Tune (D A D G)
Q=127
4/4

The bass kicks in just after the word "wrote" in the intro.

                                    Wrote!
  W          W          W          H    Q  E E
|----------|----------|----------|-------------|
|----------|----------|----------|-------------|
|----------|----------|----------|-------------|
|----------|----------|----------|-----------2-|


  +E  E E E E E E E   +E  E E E E E E E   Q  E E Q  E E   +E  E E E E E E E
|-------------------|-------------------|---------------|-------------------|
|-------------------|-------------------|---------------|-------------------|
|-------------------|---------------3---|----3-3------5-|-(5)-5---5-5-------|
|-(2)-2-2-2-2-2-2-2-|-(2)-2-2-2-2-2-----|---------------|-----------------2-|


  +E  E E E E E E E   +E  E E E E E E E   +E  E E E E E E E   Q  E E +E  E E E
|-------------------|-----------0-------|-------------------|------------------|
|-----------0-2---2-|-(2)---------2---2-|-(2)-------2-------|------------------|
|-------------------|-------------------|-------------0-2---|----3-5-(5)-------|
|-(2)-2-2-2-----2---|-----2-2-2---------|-----2-2-2---------|----------------2-|


  +Q   E E E E E E   E E E E E E E E   +E  E E E E E E E   E E E E E E E E
|------------------|-----------------|-------------------|-----------------|
|------------------|-----------------|-------------------|-----------------|
|------------------|-----------------|-------------------|-----------------|
|-(2)--2---2---2---|-2---2---2---2-2-|-(2)-2-2---2---2---|-2---2---2---2---|


  Q  E E E E S S E   E E Q  E E E E   E E E E E E E E   E E E E E E E E
|------------------|----------------|-----------------|---------0-------|
|--------------2-0-|---0----0---2---|-----------------|-----------4---2-|
|----3-----0-------|----------0-----|-----------------|---2---2---------|
|------------------|--------------2-|---2-2---2---2---|-2---------------|


  +E  E E E E E E E   E E E E E E E E   +E  E E E E E E E   E E E E E E E E
|-------------------|-----------------|-------------------|-----------------|
|-(2)---------------|---2-------------|-------------------|-----------------|
|-------------------|-----------------|-------------------|-----------------|
|-----2-2-2-2-2-2-2-|-2---2-2-2-2-2-2-|-(2)-2-2-2-2-2-2-2-|-2-2-2-2-2-2-2---|


  Q  E E E E S S E   +E  E E E E E E E   +E  E E E E E E E   E E E E E E E E
|------------------|-------------------|-------------------|---------0-------|
|--------------2-0-|-(0)-0---0-0-0-----|-----2-------------|-----0-----4-----|
|----3-3---0-------|-------------------|-------------------|---2---2-----5---|
|------------------|-----------------2-|-(2)---2-2-2-2-2-2-|-2---------------|


  Q  E E Q  E E   +E  E E E E E E E   +E  E E E E E E E   E E E E E E Q
|---------------|-------------------|-------------------|---------0------|
|---------------|-------------------|-----2-------------|-----------4----|
|----3-3----3-5-|-(5)-5---5-5-5-----|-------------------|----------------|
|---------------|-----------------2-|-(2)---2-2-2-2-2-2-|-2-2-2-2--------|


  Q  E E Q  E E   +E  E E E E E Q    Q  E E Q  E E   H    Q  E E
|---------------|------------------|---------------|-------------|
|---------------|------------------|---------------|-------------|
|----3-3----3-5-|-(5)-5---5-5-5----|----3-3----3---|-------------|
|---------------|------------------|---------------|-----------2-|


  +E  E E E E E E E   +E  E E E E E E E   Q  E E E E S S E   +E  E E E E E E E
|-------------------|-------------------|------------------|-------------------|
|-------------2-----|-------------------|--------------2-0-|-(0)-0---0-0-0-----|
|-------------------|-------------------|----3-3---0-------|-------------------|
|-(2)-2-2-2-2---2-2-|-(2)-2-2-2-2-2-2---|------------------|-----------------2-|


  +E  E E E E E E E   +E  E E E E E E E   Q  E E E E S S E   +E  E E E E E E E
|-------------------|-------------------|------------------|-------------------|
|-------------------|---------2---------|--------------2-0-|-(0)-0---0---0-0---|
|-------------------|-------------------|----3-3---0-------|-------------------|
|-(2)-2-2-2-2-2-2-2-|-(2)-2-2---2-2-2---|------------------|-----------------2-|


  +E  E E E E E E E   +E  E E E E E E E   +E  E E E E E E E   Q  E E +E  E E E
|-------------------|-----------0-------|-------------------|------------------|
|-----------0-2---2-|-(2)---------2---2-|-(2)-------2-------|------------------|
|-------------------|-------------------|-------------0-2---|----3-5-(5)-5-5---|
|-(2)-2-2-2-----2---|-----2-2-2---------|-----2-2-2---------|----------------2-|


  +E  E E E E E E E   E E E E E E E E   +E  E E E E E E E   E E E E E E E E
|-------------------|-----------------|-------------------|-----------------|
|-------------------|-----------------|-------------------|-----------------|
|-------------------|-----------------|-------------------|-----------------|
|-(2)-2-2-2-2-2-2-2-|-2-2-2-2-2-2-2-2-|-(2)-2-2---2---2---|-2-2-2-2-2-2-2---|


  Q  E E E E S S E   +E  E E E E E E E
|------------------|-------------------|
|--------------2-0-|-(0)-0---0-0-0-----|
|----3-3---0-------|-------------------|
|------------------|-----------------2-|


  +E  E E E E E E E   S S E E E E E E E
|-------------------|---2-4-2-0-----------|
|-------------------|-------------2-------|
|-------------------|---------------------|
|-(2)-2-2-2-2-2-2-2-|-2---------------2---|


  +E  E E E E E E E   E E E E E E E E   +E  E E E E E E E   E E E E E E E E
|-------------------|-----------------|-------------------|-----------------|
|-------------------|-----------------|-------------------|-----------------|
|-------------------|-----------------|-------------------|-----------------|
|-(2)-2-2-2-2-2-2-2-|-2-2-2-2-2-2-2-2-|-(2)-2-2-2-2-2-2-2-|-2-2-2-2-2-2-2---|


  Q  E E E E S S E   +E  E E E E E E E   +E  E E E E E E E   E E E E E E E E
|------------------|-------------------|-------------------|---------0-------|
|--------------2-0-|-(0)-0---0-0-0-----|-----2-------------|-----0-----4-----|
|----3-3---0-------|-------------------|-------------------|---2---2-----5---|
|------------------|-----------------2-|-(2)---2-2-2-2-2-2-|-2---------------|


  Q  E E Q  E E   +E  E E E E E E E   +E  E E E E E E E   E E E E E E Q
|---------------|-------------------|-------------------|---------0------|
|---------------|-------------------|-----2-------------|-----------4----|
|----3-3----3-5-|-(5)-5---5-5-5-----|-------------------|----------------|
|---------------|-----------------2-|-(2)---2-2-2-2-2-2-|-2-2-2-2--------|


  Q  E E Q  E E   +E  E E E E E Q    Q  E E Q  E E   E E E E E E E E
|---------------|------------------|---------------|---------0-------|
|---------------|------------------|---------------|-----0-----4-----|
|----3-3----3-5-|-(5)-5---5-5-5----|----3-3----3---|---2---2---------|
|---------------|------------------|---------------|---------------2-|


  +E  E E E E E E E   +E  E E E E E E E   Q  E E Q  E E   +E  E E E E E E E
|-------------------|-------------------|---------------|-------------------|
|-------------------|-------------------|---------------|-------------------|
|-------------------|-------------------|----3-3------5-|-(5)-5---5-5-5-----|
|-(2)-2-2-2-2-2-2-2-|-(2)-2-2-2-2-2-2---|---------------|-----------------2-|


  +E  E E E E E E E   +E  E E E E E E E   Q  E E Q  E E   +E  E Q  E E E E
|-------------------|-------------------|---------------|------------------|
|-------------------|-------------------|---------------|------------------|
|-------------------|-------------------|----3-3------5-|-(5)-5------5-5---|
|-(2)-2-2-2-2-2-2-2-|-(2)-2-2-2-2-2-2---|---------------|----------------2-|


  +E  E E E E E Q    Q  E E E S S E E   +E  E E E E E E E   +E  E E E E E Q
|------------------|------------------|-------------------|------------------|
|-----2-----2-0----|------------------|-------------------|-----------2-0----|
|------------------|----3-3---0-5-7-5-|-(5)-5---5-5-5-----|------------------|
|-(2)---2-2--------|------------------|-----------------2-|-(2)-2-2-2--------|


  Q  E E E S S E E   +E  E E E E E E E   +E  E E E E E E E   +E  E E E E E E E
|------------------|-------------------|-------------------|-----------0-------|
|------------------|-------------------|-----------0-2---2-|-(2)---------4-----|
|----3-3---0-5-7-5-|-(5)-5---5-5-------|-------------------|---------------5---|
|------------------|-----------------2-|-(2)-2-2-2-----2---|-----2-2-2---------|


  Q  E E E S S E E   +E  E E E E E E E   +E  E E E E E E E   +E  E E E E E E E
|------------------|-------------------|-------------------|-------------------|
|------------------|-------------------|-------------------|-------------------|
|----3-3---0-5-7-5-|-(5)-5---5-5-5-----|-------------------|-------------------|
|------------------|-----------------7-|-(7)-7-7-7-7-7-7-9-|-(9)-9-9-9-9-7-9---|


  Q   E  E E E  E  E    +E   E E  E  E  E E E
|--------------------|------------------------|
|--------------------|------------------------|
|--------------------|------------------------|
|----10-10---7-10-12-|-(12)-12---12-12-12---9-|


  +E  E E E E E E E   E E E E E E E E
|-------------------|-----------------|
|-------------------|-----------------|
|-------------------|-----------------|
|-(9)-9-9-9-9-9-9-9-|-9-9-9-9-9-9-9---|


  W          W          W          W
|----------|----------|----------|------|
|----------|----------|----------|------|
|----------|----------|----------|------|
|----------|----------|----------|------|


  W          W          W          E S S E E E E E E
|----------|----------|----------|-------------------|
|----------|----------|----------|---7-9-7-----------|
|----------|----------|----------|-----------9-7-5---|
|----------|----------|----------|-----------------2-|


  +E  E E E E E E E   +E  E E E E E E E   Q  E E E E S S E   +E  E E E E E E E
|-------------------|-------------------|------------------|-------------------|
|-------------2-----|-------------------|--------------2-0-|-(0)-0---0-0-0-----|
|-------------------|-------------------|----3-3---0-------|-------------------|
|-(2)-2-2-2-2---2-2-|-(2)-2-2-2-2-2-2---|------------------|-----------------2-|


  +E  E E E E E E E   +E  E E E E E E E
|-------------------|-------------------|
|-------------------|---------2---------|
|-------------------|-------------------|
|-(2)-2-2-2-2-2-2-2-|-(2)-2-2---2-2-2---|


  Q  E E E E S S E   +E  E E E E S S E E
|------------------|-----------------------|
|--------------2-0-|-(0)-0---0-0-0-2-------|
|----3-3---0-------|-----------------------|
|------------------|-------------------2---|


  +E  E E E E E E E   E E E E E E E E   Q  E E Q  S S E   +E  E E E E E E E
|-------------------|-----------------|-----------------|-------------------|
|-------------------|-----------------|-----------------|-------------------|
|-------------------|-----------------|----3-3------5-5-|-(5)-5---5-5-5-----|
|-(2)-2-2-2-2-2-2-2-|-2-2-2-2-2-2-2---|-----------------|-----------------2-|


  +E  E E E E E E E   +E  E E E E E E E   Q  E E Q  E E   E S S E E E E E E
|-------------------|-------------------|---------------|-------------------|
|-------------------|-------------------|---------------|---7h9-7-5-4-2-0---|
|-------------------|-------------------|----3-3------5-|-------------------|
|-(2)-2-2-2-2-2-2-2-|-(2)-2-2-2-2-2-2---|---------------|-----------------2-|


  +E  E E E E E E E   E E Q  E E E E   Q  E E Q  E E   E E E E E E E E
|-------------------|---0----0-------|---------------|-----------------|
|-------------------|----------4-----|---------------|---5-----5-4-----|
|-------------------|------------5---|----3-3------5-|-5-----5---------|
|-(2)-2-2-2-2-2-2-2-|-2--------------|---------------|---------------2-|


  +E  E E E E E E E   E E E E E E Q    E E E E Q  E E   E E E E E E E E
|-------------------|---0-----0------|----------------|-----------------|
|-------------------|-------0---4----|----------------|-----------------|
|-------------------|----------------|-3---3-3--------|-----------------|
|-(2)-2-2-2-2-2-2-2-|-2--------------|--------------5-|---5-4-0-5-4---5-|


                                  Q=50
  E E E E E E Q    Q  Q  +H       +H     +Q.   E
|----------------|--------------|----------------*|
|----------------|--------------|----------------*|
|----------------|--------------|----------------*|
|---5-4-0-5-4----|----2--(2)----|-(2)----(2)-----*|
End





Comments


Popular Firehouse tabs & chords
Christmas With You Chords
The Day, The Week, And The Weather Chords
When I Look Into Your Eyes Chords
You Are My Religion Chords
Get Ready 2 Tabs
Here For You 6 Tabs
Lover's Lane Tabs
Mama Didnt Raise No Fools Intro Tabs
Overnight Sensation Intro Tabs
When I Look Into Your Eyes Ukulele


Song lyrics



↑ Back to top | Tablatures and chords are parodies/interpretations of the original songs. You may use it for private study, scholarship, research or language learning purposes only
© 2014 AZChords.com Contact us | Privacy policy | DMCA | Add/correct tabs | Request tabs | Top 50 tabs