» » »

Hellhole Bass tabs (ver.1)

Artists:  A B C D E F G H I J K L M N O P Q R S T U V W X Y Z # 

Hellhole Bass tabs (ver.1)

Firehose
Rating:
0/5 (0 votes)

Hard to play? Try these video lessons and learn fast.
                One for the OLGA:

"Hellhole" from the album "Mr.Machinery Operator" by fIREHOSE.

INTRO
*****

      /P\
G:--12---10-------------------------------|
D:-----------12---10---8------------------|
A:------------------------10---8---10-----|
E:----------------------------------------|

MAIN
****

G:---------------5-------7--5---------------------------------|
D:----(7)-(7)-7----------------7--5--3------------------------|
A:--5-----------------------------------5--3--1-----1--1------|
E:-----------------------------------------------3--------3---|


MAIN_1
******

G:------------------------------|
       /H\
D:----3---5--7--5--3------------|
                       /P\
A:--5-----------------5---3-----|
E:------------------------------|


MAIN_2                    MAIN_2 ADDITIONAL
******                    *****************

G:--3------------|        |---------------|
        /P\
D:-----5---3-----|        |---------------|
A:------------5--|        |---3--1--------|
E:---------------|        |---------1-----|

Play the 3 bars of MAIN and the fourth bar alternates between MAIN_1 and 
MAIN_2; MAIN_2 ADDITIONAL is played before Kira's wailing. The bass line 
under the wailing is indecipherable on my hissing copy of the album.
The end is MAIN followed by MAIN_2 repeated over and over. The whole thing
is slapped.

NOTES:   /P\ = Pull off        /H\ = Hammer on      (x) = ghost note
            
Hard to play? Try these video lessons and learn fast. | Correct




comments powered by Disqus
↑ Back to top | Tablatures and chords are parodies/interpretations of the original songs. You may use it for private study, scholarship, research or language learning purposes only