» » »

Core Of My Addiction Tabs (ver.1)

Artists:  A B C D E F G H I J K L M N O P Q R S T U V W X Y Z # 

Core Of My Addiction Tabs (ver.1)

Fireflight
Rating:
3/5 (5 votes)

Hard to play? Try these video lessons and learn fast.
                Fireflight - Core Of My Addiction (Standard Tuning Version) 

Tuning - Standard (low to high) EADGBe 

Guitar 1 - Clean 
e|----------------------------------|
B|----------------------------------|
G|----------------------------------|
D|----------------------------------| repeat however many times until
A|-------6-6-6-6-6-------2-2--------| 
E|-4-4-4-----------0-0-0-----2-2-2--|

e|----------------------------------|
B|----------------------------------|
G|----------------------------------|
D|----------------------------------|
A|-------6-6-6-6-6------------------|
E|-4-4-4-----------0-0-0-2-2-2-2-2--|

Guitar 1 & 2 - Overdrive
e|----------------------------------|
B|----------------------------------|
G|----------4-4-----------4-4-------|
D|-6-6--6-6-4-4-4-4---6-6-4-4-2-2---| x2
A|-6-6--6-6-2-2-4-4---6-6-2-2-2-2---|
E|-4-4--4-4-----2-2---4-4-----0-0---|

Guitar 1 - Overdrive
e|---------------------------------------------------------|
B|---------------------------------------------------------|
G|--------4--------------4-------------4-------------------|
D|-6------4-(x8)-4-------4-(x3)-2------4-(x8)4------5------| 
A|-6-(x8)-2------4-(x12)-2------2-(x8)-2-----4-(x8)-5-(x8)-|
E|-4-------------2--------------0------------2------3------|

Guitar 2 - Overdrive
e|---------------------------------------------------------------------|
B|---------------------------------------------------------------------|
G|--------4--------------4-------------4------9-7---------9~7----------|
D|-6------4-(x8)-4-------4-(x3)-2------4-(x8)-----8-6---------8-6------| 
A|-6-(x8)-2------4-(x12)-2------2-(x8)-2--------------9-6---------9-6~-|
E|-4-------------2--------------0--------------------------------------|
Repeat 2 or 3 times, can't remember how many :/ 

Guitar 1 - Clean
e|----------------------------------|
B|----------------------------------|
G|----------------------------------|
D|----------------------------------| repeat however many times until
A|-------6-6-6-6-6-------2-2--------| 
E|-4-4-4-----------0-0-0-----2-2-2--|

e|----------------------------------|
B|----------------------------------|
G|----------------------------------|
D|----------------------------------|
A|-------6-6-6-6-6------------------|
E|-4-4-4-----------0-0-0-2-2-2-2-2--|

Guitar 1 & 2- Overdrive
e|----------------------------------|
B|----------------------------------|
G|----------4-4-----------4-4-------|
D|-6-6--6-6-4-4-4-4---6-6-4-4-2-2---| x2
A|-6-6--6-6-2-2-4-4---6-6-2-2-2-2---|
E|-4-4--4-4-----2-2---4-4-----0-0---|

Guitar 1 - Overdrive
e|---------------------------------------------------------|
B|---------------------------------------------------------|
G|--------4--------------4-------------4-------------------|
D|-6------4-(x8)-4-------4-(x3)-2------4-(x8)4------5------| 
A|-6-(x8)-2------4-(x12)-2------2-(x8)-2-----4-(x8)-5-(x8)-|
E|-4-------------2--------------0------------2------3------|

Guitar 2 - Overdrive
e|---------------------------------------------------------------------|
B|---------------------------------------------------------------------|
G|--------4--------------4-------------4------9-7---------9~7----------|
D|-6------4-(x8)-4-------4-(x3)-2------4-(x8)-----8-6---------8-6------| 
A|-6-(x8)-2------4-(x12)-2------2-(x8)-2--------------9-6---------9-6~-|
E|-4-------------2--------------0--------------------------------------|
Repeat 2 or 3 times, can't remember how many :/ 

Guitar 1 & 2 - Clean (PM - .)
e|-----------------------|
B|-----------------------|
G|-----------------------|
D|-6------2------4-------|
A|-6-(x8)-2-(x8)-4-(x8)--|
E|-4------0------2-------|
   .      .    (slowly release palm mute, gets louder)

Guitar 1 - Clean
e|------------------|
B|------------------|
G|----------4-4-----|
D|-6-6--6-6-4-4-4-4-|
A|-6-6--6-6-2-2-4-4-|
E|-4-4--4-4-----2-2-|

(drum fill)
Guitar 1 - Overdrive
e|---------------------------------------------------------|
B|---------------------------------------------------------|
G|--------4--------------4-------------4-------------------|
D|-6------4-(x8)-4-------4-(x3)-2------4-(x8)4------5------| 
A|-6-(x8)-2------4-(x12)-2------2-(x8)-2-----4-(x8)-5-(x8)-|
E|-4-------------2--------------0------------2------3------|

Guitar 2 - Overdrive
e|---------------------------------------------------------------------|
B|---------------------------------------------------------------------|
G|--------4--------------4-------------4------9-7---------9~7----------|
D|-6------4-(x8)-4-------4-(x3)-2------4-(x8)-----8-6---------8-6------| 
A|-6-(x8)-2------4-(x12)-2------2-(x8)-2--------------9-6---------9-6~-|
E|-4-------------2--------------0--------------------------------------|
Repeat until it finishes with 

Guitar 1 & 2 - Overdrive
e|-----------------------|
B|-----------------------|
G|-----------------------|
D|-6-6-6--6--6-6-6-6~----|
A|-6-6-6--6--6-6-6-6~----|
E|-4-4-4--4--4-4-4-4~----|

~ - Hold note
            
Hard to play? Try these video lessons and learn fast. | Correct




comments powered by Disqus
↑ Back to top | Tablatures and chords are parodies/interpretations of the original songs. You may use it for private study, scholarship, research or language learning purposes only