» » »

Filter, Skinny Tabs (ver.2)

Artists:  A B C D E F G H I J K L M N O P Q R S T U V W X Y Z # 

Skinny Tabs (ver.2)

Filter Tabs
 Rating:
4/5 (4 votes)
Skinny lessons Tabs too difficult? Try these video lessons and learn fast
                

h hammer on
p pull off
/ slide up
\ slide down

Standard Tuning

---|-------------------------------------------------------------------------|
---|-------------------------------------------------------------------------|
---|-------------------------------------------------------------------------|
---|-19h21--17------16h17----------------------------------------------------|
---|-----------21---------19\-17\-15\---------10-9--9-9/10-10-/12-12-/-------|
---|-----------------------------------17h19---------------------------19br--|
    G1 Intro Pt.1a

---|------------|--|--------------|-------------------------------------------|
---|------------|--|--------------|-------------------------------------------|
---|------------|--|--------------|-------------------------------------------|
---|------------|3x|--------------|-------------------------------------------|
---|------------|--|--------------|-------------------------------------------|
---|-5---5---5--|--|-5-5--5-------|-------------------------------------------|
    G2 Intro Pt.1a

---|-----5--------------------2------5----------------------|--|--------------|
---|---5----5----------------------5----5-------------------|--|--------------|
---|----------7--------2------------------7--------2----2---|--|--------------|
---|-7----------7----4---4--4----7----------7----4---4------|2x|--------------|
---|---------------5---------------------------5------------|--|--------------|
---|--------------------------------------------------------|--|--------------|
    G3 Intro Pt.1b

---|----------------------------------------------------------------------|---|
---|----------------------------------------------------------------------|---|
---|----------------------------------------------------------------------|---|
---|---------17-------------------------------21p17--17-17/19-19--17p16---|---|
---|------19-----21--19--\17\16-17h19--19-19------------------------------|---|
---|-17-------------------------------------------------------------------|---|
    G1 Intro Pt.2

---|-------------|------------------------------------------------------------|
---|-------------|------------------------------------------------------------|
---|-6-----7-----|------------------------------------------------------------|
---|-7-----7-----|------------------------------------------------------------|
---|-7-----5-----|------------------------------------------------------------|
---|-------------|------------------------------------------------------------|
    G2&G3 Strum Intro Pt.2 & Verse

---|--------------------------------------------------|--|--------------------|
---|--------------------------------------------------|--|--------------------|
---|--------------------------------------------------|--|--------------------|
---|--------------------------------------------------|--|--------------------|
---|--------------------------------------------------|--|--------------------|
---|-8--8--8--8--8-7-6--6--6--5--5--5--5--5--5--5--6--|--|--------------------|
    G2 Interlude

---|---------------------------------------------------|--|----------------|--|
---|---------------------------------------------------|--|-----------5----|--|
---|---------------------------------------------------|--|-----------x----|--|
---|---------------------------------------------------|--|----7--7-7-7----|--|
---|---------------------------5--5--5--5--5--5--5-5-5-|--|----7--7-7------|--|
---|-5/8\5--5--5--5--5--5-5-5--5--5--5--5--5--5--5-5-5-|--|-5--------------|--|
    G2 Chorus                                               End Chorus 1

--------|--------------------------|--|---------------------------------------|
--------|--------------------------|--|---------------------------------------|
--------|--------------------------|--|---------------------------------------|
--------|--------------------------|--|---------------------------------------|
--------|-5------------------------|--|---------------------------------------|
--------|-5--7p5--5-7--5-7--7p5-5--|--|---------------------------------------|
   Bridge    Bass................

--------|----------------------|----------------------------------------------|
--------|----------------------|----------------------------------------------|
--------|----------------------|----------------------------------------------|
--------|---11-----------------|----------------------------------------------|
--------|---12-----------------|----------------------------------------------|
--------|-5--------------------|----------------------------------------------|
    End  G2 G1
            
Submit corrections

comments powered by Disqus
↑ Back to top | Filter Tabs for Skinny. Lyrics for acoustic guitar and electric guitar. Tablatures and chords are parodies/interpretations of the original songs. You may use it for private study, scholarship, research or language learning purposes only