» » »

American Cliche Tabs (ver.2)

Artists:  A B C D E F G H I J K L M N O P Q R S T U V W X Y Z # 

American Cliche Tabs (ver.2)

Filter
Rating:
3/5 (2 votes)

Hard to play? Try these video lessons and learn fast.
                American Cliche' by Filter

hey guys this is my second song that I've tabed And i just knew this had to be it due to
lack of correct or near correct tabs for this song. now im not sure if this is dead on
it sounds close enough to me. I didnt even bother trying to get down the intro because
what i can hear it requires lots of effects and I only have a pedal board, hardly
for an fx loop....from the sounds of it chorus, flanger, digital delay, and some other
I cant put my finger on are set up in a way i cant figure out with lots of gain (I mean
just to get those kinds of harmonix) in an fx loop If anyone can figure it out I'd 
love to know.

tuned drop d
( ) are litely touched for harmonix
x is open
*Should be done by second guitar (a second guitar will make it sound great but can be

*intro (this is what it sounds like to me I could be wrong lol)
-----------------------------------------------------------------------------|
-----------------------------------------------------------------------------|
------------------------(16)-(16)--------------------------------------------|(X9)
----16-----------(16)--------------------------------------------------------|
----15------(15)-------------------------------------------------------------|
-----------------------------------------------------------------------------|

Verse 1 (this part is lightly palm muted with your picking hand / all with down picking)
-----------------------------------------------------------------------------|
-----------------------------------------------------------------------------|
-----------------------------------------------------------------------(X11--|
-----------------------------------------------------------------------------|
-x-x-x-x--5---x-x-x-x-x-x-x-x-x-x---6-6--------------------------------------|
-x-x-x-x--5---x-x-x-x-x-x-x-x-x-x---6-6--------------------------------------|

Chorus (the harmonix are only played once at the begining of the chorus/ let each chord
for a few seconds on the actual chorus)
-----------------------------------------------------------------------------|
-----------------------------------------------------------------------------|
-----------------------------------------------------------------------------|(X4)
--(8)-(8)-(8)-(8)---x--------6----------5----------3-------------------------|
--(8)-(8--(8)-(8)---x--------6----------5----------3-------------------------|

*(played on diffrent chanel or second guitar before verse 2)
-----------------------------------------------------------------------------|
-----------------------------------------------------------------------------|
-----------------------------------------------------------------------------|(X2)
-----------------------------------------------------------------------------|
-x-x-x-x--5---x-x-x-x-x-x-x-x-x-x---6--6-------------------------------------|
-x-x-x-x--5---x-x-x-x-x-x-x-x-x-x---6--6-------------------------------------|


Verse 2 (same as first verse)
-----------------------------------------------------------------------------|
-----------------------------------------------------------------------------|
-----------------------------------------------------------------------(X11--|
-----------------------------------------------------------------------------|
-x-x-x-x--5---x-x-x-x-x-x-x-x-x-x---6-6--------------------------------------|
-x-x-x-x--5---x-x-x-x-x-x-x-x-x-x---6-6--------------------------------------|

Chorus (Played the same way)
-----------------------------------------------------------------------------|
-----------------------------------------------------------------------------|
-----------------------------------------------------------------------------|(X4)
-----------------------------------------------------------------------------|
--(8)-(8)-(8)-(8)---x--------6----------5----------3-------------------------|
--(8)-(8--(8)-(8)---x--------6----------5----------3-------------------------|


-----------------------------------------------------------------------------|
-----------------------------------------------------------------------------|
-----------------------------------------------------------------------------|(X3)
-7-7-7-7-7-7-7-7-6-6-6-6-6---------------------------------------------------|
-5-5-5-5-5-5-5-5-6-6-6-6-6---------------------------------------------------|
-5-5-5-5-5-5-5-5-6-6-6-6-6---------------------------------------------------|


-----------------------------------------------------------------------------|
-----------------------------------------------------------------------------|
-----------------------------------------------------------------------------|(X1)
-7-7-7-7-7-7-7-7---6---6-----------------------------------------------------|
-5-5-5-5-5-5-5-5---4---4-----------------------------------------------------|
-5-5-5-5-5-5-5-5---4---4-----------------------------------------------------|


*(And again the intro Im in no way sure of, this time done all the way till the end of
song)
----------------------------------------------------------------------------|
----------------------------------------------------------------------------|
------------------------(16)-(16)-------------------------------------------|
----16-----------(16)-------------------------------------------------------|
----15------(15)------------------------------------------------------------|
----------------------------------------------------------------------------|

(same as first and second verse)
----------------------------------------------------------------------------|
----------------------------------------------------------------------------|
-----------------------------------------------------------------------(X14-|
----------------------------------------------------------------------------|
-x-x-x-x--5---x-x-x-x-x-x-x-x-x-x---6-6-------------------------------------|
-x-x-x-x--5---x-x-x-x-x-x-x-x-x-x---6-6-------------------------------------|
            
Hard to play? Try these video lessons and learn fast. | Correct




comments powered by Disqus
↑ Back to top | Tablatures and chords are parodies/interpretations of the original songs. You may use it for private study, scholarship, research or language learning purposes only