» » »

Celebrate Tabs (ver.1)

Artists:  A B C D E F G H I J K L M N O P Q R S T U V W X Y Z # 

Celebrate Tabs (ver.1)

Fields Of The Nephilim
Rating:
0/5 (0 votes)

Tabs too difficult? Try these video lessons and learn fast.
                FIELDS OF THE NEPHILIM - "Celebrate"

Comments, corrections etc. welcome.


This is my interpretation of the bassline, as played on guitar. Just 
tune it down an octave ;-)


The "..." indicates repetition of the "0 2 0 2" line appropriate 
number of times. 

e -----0-------0---...-----------------------3-----0-------0---...
B -----------------...---3-----3-----3---3-3-------------------...
G ---2---2---2---2-...---------------------------2---2---2---2-...
D -----------------...-0---0-0---0-0---0-----------------------...
A -0-------0-------...-------------------------0-------0-------...
E -----------------...-----------------------------------------...

e -----------------------3-----0-------0-----------------------
B ---3-----3-----3---3-3---------------------------------------
G ---------------------------2---2---2---2---2-----2-----------
D -0---0-0---0-0---0-------------------------------------------
A -------------------------0-------0-------0---0-0---0---------
E -------------------------------------------------------------

e --------------------------------------------------------0----
B -------------------------------------------------------------
G ---0-----0---------0-----0----------------------------2---2--
D ----------------------------------------0---0---0------------
A -3---3-----3-0---3---3-----3-0----3-0---------------0------0-
E -------3---------------3--------3-----3---3---3---3----------

,and start all over again.
            
Tabs too difficult? Try these video lessons and learn fast.


comments powered by Disqus
↑ Back to top | Tablatures and chords are parodies/interpretations of the original songs. You may use it for private study, scholarship, research or language learning purposes only