>
 >
Estudio 17

Estudio 17 Guitar Tabs

Fernando Sor - Estudio 17 chords, tabs, tablatures, lyrics

Guitar lessons | Add/correct | Request | Top 50 tabs Artists:  A B C D E F G H I J K L M N O P Q R S T U V W X Y Z 0-9

Estudio 17 Guitar Tabs – Fernando Sor

CD, Sheet music, Poster

Do you like Estudio 17? Share with your friends now
Tabs
fernando sor
estudio 17
took awhile but its all done
enjoi...

eadgbe

 
|----------------0-------0-------|0------------------------------
|--------0-----------------------|--------0-------0-------0------
|----0-------0-------0-------0---|----0-------0-------0-------0--
|--2-------2-------2-------2-----|--2-------2-------2-------2----
|--------------------------------|-------------------------------
|0-------------------------------|0------------------------------

 
|----------------0-------3-------|3---------------2--------------
|--------0-----------------------|--------1---------------1------
|----0-------0-------0-------0---|----2-------2-------2-------2--
|--2-------2-------2-------2-----|--2-------2-------2-------2----
|--------------------------------|-------------------------------
|0-------------------------------|0------------------------------


|--------2-------2-------2-------|2------------------------------
|--------------------------------|--------0-------0--------------
|----2-------2-------2-------2---|----2-------2-------2-------2--
|--2-------2-------2-------2-----|--1-------1-------1-------1----
|--------------------------------|------------------------3------


|--------2-------3-------2-------|2---------------0--------------
|--------------------------------|--------0---------------0------
|----2-------2-------2-------2---|----2-------2-------0-------0--
|--1-------1-------1-------1-----|--2-------2-------2-------2----
|2-------------------------------|-------------------------------
|--------------------------------|0------------------------------

 
|--------3-------3-------3-------|3-------2-------2--------------
|----0-------0-------0-------2---|----3-------3-------3-------3--
|--------------------------------|--2-------2-------2-------2----
|--2-------2-------2-------2-----|0-----------------------0------
|--------------------------------|-------------------------------
|0-------------------------------|-------------------------------

 
|--------5-------5-------5-------|5-------3-------3--------------
|----3-------3-------3-------3---|--0-3-----0-3-----0-3-----0-3--
|--5-------5-------5-------5-----|0-----------------------0------
|4-------------------------------|-------------------------------
|--------------------------------|-------------------------------
|--------------------------------|-------------------------------

 
|--------7-------7-------7-------|7-------5-------5---0-------0--
|----3-------3-------3-------3---|----5-------5-----1-------1----
|--4-------4-------4-------4-----|--5-------5--------------------
|--------------------------------|-------------------------------
|--------------------------------|------------------------3------
|3-------------------------------|8------------------------------

 
|----0---3---0---3---0---3---0---|3-------2-------2--------------
|--------------------------------|----3-------3-------3-------3--
|--3-------3-------3-------3-----|--2-------2-------2-------2----
|--------------------------------|0-----------------------0------
|4-------------------------------|-------------------------------
|--------------------------------|-------------------------------

 
|--------2-------2-------2-------|2-------3-------3--------------
|----3-------3-------3-------3---|----3-------3-------3-------3--
|--2-------2-------2-------2-----|--0-------0-------0-------0----
|--------------------------------|-------------------------------
|3-------------------------------|2-----------------------2------
|--------------------------------|-------------------------------

 
|--------5-------5-------5-------|6-------7-------7--------------
|--------------------------------|----0-------0-------0----------
|----5-------5-------5-------5---|----------------------------0--
|--------------------------------|--0-------0-------0-------0----
|--5-------5-------5-------5-----|-------------------------------
|2-------------------------------|3-----------------------3------

 
|--------3-------3-------3-------|--------5---------------8---0--
|----0-------0-------0-------0---|----5-------5-------5-----1----
|--0-------0-------0-------0-----|--5-------5-------5------------
|------------------------2-------|-------------------------------
|--------------------------------|-------------------------------
|0-------------------------------|8---------------5--------------

 
|--------2-------2-------2-------|2-------3-------3--------------
|----1-------1-------1-------1---|----1-------0-------0-------0--
|--2-------2-------2-------2-----|--2-------0-------0-------0----
|0-----------------------1-------|2-----------------------2------
|--------------------------------|-------------------------------
|--------------------------------|-------------------------------

 
|--------1-------1-------1-------|1-------0-----------0---5---0--
|----3-------3-------3-------3---|----3-------1-----1-------1----
|--1-------1-------1-------1-----|--2-------2--------------------
|--------------------------------|-------------------------------
|2-------------------------------|3---------------0--------------
|--------------------------------|-------------------------------

 
|5-------3-------3-------2-------|3------------------------------
|--0-3-----0-3-------1-------1---|----0---3---0---0---0---3---0--
|------------------2-------2-----|--0-------0-------0-------0----
|0-------------------------------|--------0---------------0------
|--------------------------------|----------------2--------------
|--------------------------------|3------------------------------

 
|----------------7-------5-------|5---------------4--------------
|--------3-----------------------|----0---3---0-------0---3---0--
|--------------------------------|-------------------------------
|--------------------------------|--2-------2-------2-------2----
|--------------------------------|-------------------------------
|3-------------------------------|0------------------------------

 
|--------0-------2-------4-------|7-------0-------5-------0------
|--0-3-----0-3-----0-3-----0-3---|----3-------3-------1-------1--
|--------------------------------|--1-------1-------2-------2----
|--------------------------------|-------------------------------
|--------------------------------|0------------------------------
|0-------------------------------|-------------------------------
 

|--------0-------5-------3-------|3-------2-------2--------------
|----1-------1-------1-------1---|----1-------1-------1-------1--
|--2-------2-------2-------2-----|--2-------2-------2-------2----
|------------------------1-------|0-----------------------0------
|0-------------------------------|-------------------------------
|--------------------------------|-------------------------------

 
|--------2-------0-------2-------|5---------------3--------------
|----1-------1-------1-------1---|----1---3---1-------0---3---0--
|--2-------2-------2-------2-----|------------------0-------0----
|0-------------------------------|--4-------4--------------------
|--------------------------------|-------------------------------
|--------------------------------|3------------------------------

 
|--------3-------3-------3-------|3---------------2--------------
|--0-3-----0-3-----0-3-----0-3---|--------0---------------0------
|--------------------------------|----2-------2-------2-------2--
|--------------------------------|--1-------1-------1-------1----
|--------------------------------|2------------------------------
|3-------------------------------|-------------------------------

 |      
|--------2-------2-------2-------|2---------------0--------------
|--------------------------------|--------0---------------0------
|----2-------2-------2-------2---|----0-------0-------0-------0--
|--1-------1-------1-------1-----|--2-------2-------2-------2----
|2-------------------------------|-------------------------------
|--------------------------------|0------------------------------

 
|--------3-------3-------3-------|3---------------2--------------
|--------------------------------|--------0---------------0------
|----0-------0-------0-------0---|----2-------2-------2-------2--
|--2-------2-------2-------2-----|--1-------1-------1-------1----
|--------------------------------|2------------------------------
|0-------------------------------|-------------------------------

 
|--------2-------2-------2-------|2---------------0--------------
|--------------------------------|--------0---------------0------
|----2-------2-------2-------2---|----0-------0-------0-------0--
|--1-------1-------1-------1-----|--2-------2-------2-------2----
|0-------------------------------|-------------------------------
|--------------------------------|0------------------------------

 
|--------0-------0-------0-------|3---------------2--------------
|----0-------0-------0-------0---|--------1---------------1------
|--0-------0-------0-------0-----|----2-------2-------2-------2--
|--------------------------------|--2-------2-------2-------2----
|--------------------------------|-------------------------------
|0-------------------------------|0------------------------------


|--------2-------2-------2-------|5---------------4--------------
|--------------------------------|----0---3---0-------0---3---0--
|----2-------2-------2-------2---|-------------------------------
|--2-------2-------2-------2-----|--2-------2-------2-------2----
|--------------------------------|-------------------------------
|0-------------------------------|0------------------------------

 
|--------4-------4-------4-------|7-------5-------5-------3------
|--0-3-----0-3-----0-3-----0-3---|----5-------5-----0-3-----0-3--
|--------------------------------|--5-------5--------------------
|--------------------------------|-------------------------------
|--------------------------------|-------------------------------
|0-------------------------------|5------------------------------

 
|3-------2-------2-------0-------|0------------------------------
|----1-------1-------2-------2---|----0---4---0---4---0-------0--
|--2-------2-------0-------0-----|-------------------------------
|--------------------------------|--4-------4-------4-------4----
|0---------------1---------------|2-----------------------2------
|--------------------------------|-------------------------------

 
|--------0-------0-------0-------|0------------------------------
|--------------------------------|----0---4---0---4---0-------0--
|--0-3-----0-3-----0-3-----0-3---|-------------------------------
|--------------------------------|--4-------4-------4-------4----
|2-------------------------------|2-----------------------2------
|--------------------------------|-------------------------------

 
|--------0-------0-------0-------|0------------------------------
|--------------------------------|----0---4---0---4---0-------0--
|--0-3-----0-3-----0-3-----0-3---|-------------------------------
|--------------------------------|--4-------4-------4-------4----
|2-------------------------------|2-----------------------2------
|--------------------------------|-------------------------------

 
|--------------------------------|--------4-------4--------------
|--------0-------0-------0-------|0------------------------------
|--------------------------------|----1-------1-------1-------1--
|--------------------------------|--2-------2-------2-------2----
|2-------------------------------|-------------------------------
|--------------------------------|0-----------------------0------

 
|--------2-------2-------2-------|2-------0-------0--------------
|----4-------4-------4-------4---|----4-------2-------2-------2--
|--2-------2-------2-------2-----|--2-------1-------1-------1----
|--------------------------------|-------------------------------
|2-------------------------------|4-----------------------4------
|--------------------------------|-------------------------------

 
|--------0-----------------------|-------------------------------
|----2-------2---4---0---2-------|2-------0-------0-----------0--
|--1-------1-----------------2---|----2-------1-------1-----1----
|------------------2-------2-----|--2-------2-------2-----2------
|0-------------------------------|2------------------------------
|--------------------------------|-------------------------------

 
|--------------------------------|--------0-------0--------------
|--------4-------4-------4-------|4-----------------------0------
|----2-------2-------2-------2---|----2-------1-------1-------1--
|--4-------4-------4-------4-----|--4-------2-------2-------2----
|2-------------------------------|-------------------------------
|--------------------------------|0------------------------------

 
|--------------------------------|--------4-------4--------------
|--------0-------0-------0-------|0------------------------------
|----1-------1-------1-------1---|----1-------1-------1-------1--
|--2-------2-------2-------2-----|--2-------2-------2-------2----
|--------------------------------|-------------------------------
|0-------------------------------|0-----------------------0------

 
|--------2-------2-------2-------|2-------0-------0--------------
|----4-------4-------4-------4---|----4-------2-------2-------2--
|--2-------2-------2-------2-----|--2-------1-------1-------1----
|--------------------------------|-------------------------------
|2---------------3---------------|4-----------------------4------
|--------------------------------|-------------------------------

 
|--------0-----------------------|-------------------------------
|----2-------2---4---0---2-------|2-------0-------0--------------
|--2-------------------------2---|----2-------1-------1-------1--
|----------2-------2-------2-----|--2-------2-------2-------2----
|0-------------------------------|2-----------------------2------
|--------------------------------|-------------------------------

 
|--------------------------------|0-------4-------2-------0------
|--------4-------4-------4-------|-------------------------------
|----2-------2-------2-------2---|----1-------1-------1-------1--
|--4-------4-------4-------4-----|--2-------2-------2-------2----
|2-------------------------------|-------------------------------
|--------------------------------|0------------------------------

 
|2-------0-----------------------|-------------------------------
|----4-------2---4---0---2-------|2-------0-------0--------------
|----------------------------2---|----1-------1-------1-------1--
|--2-------2-------2-------2-----|--2-------2-------2-------2----
|0-------------------------------|2-----------------------2------
|--------------------------------|-------------------------------

 
|--------------------------------|0------------------------------
|--------4-------4-------4-------|----0-------0-------0-------0--
|----2-------2-------2-------2---|--1-------1-------1-------1----
|--4-------4-------4-------4-----|--------2-------2-------2------
|2-------------------------------|-------------------------------
|--------------------------------|0------------------------------

 
|----------------0---------------|----------------2-------0------
|--------0---------------4-------|--------0----------------------
|----2-------2-------2-------2---|----1-------1-------1-------1--
|--4-------4-------4-------4-----|--2-------2-------2-------2----
|--------------------------------|-------------------------------
|0-------------------------------|0------------------------------

 
|----------------4-------2-------|----------------2-------0------
|--------0-----------------------|--------0----------------------
|----2-------2-------2-------2---|----1-------1-------1-------1--
|--1-------1-------1-------1-----|--2-------2-------2-------2----
|--------------------------------|-------------------------------
|0-------------------------------|0------------------------------

 
|----------------0---------------|----------------2-------0------
|--------0---------------4-------|--------0----------------------
|----2-------2-------2-------2---|----1-------1-------1-------1--
|--4-------4-------4-------4-----|--2-------2-------2-------2----
|--------------------------------|-------------------------------
|0-------------------------------|0------------------------------

 
|----------------4-------2-------|----------------0--------------
|--------0-----------------------|--------0----------------------
|----2-------2-------2-------2---|----1-------1-------1-------1--
|--1-------1-------1-------1-----|--2-------2-------2-------2----
|--------------------------------|------------------------2------
|0-------------------------------|0------------------------------

 
|----------------0---------------|----------------0-------------0-
|--------0-----------------------|--------0---------------0-------
|----1-------1-------1-------1---|----1-------1-------1-------1---
|--2-------2-------2-------2-----|--2-------2-------2-------2-----
|------------------------2-------|--------------------------------
|0-------------------------------|0---------------0-------------0-





Comments


Popular Fernando Sor tabs & chords
Allegretto Tabs
Estudio 5 In B Minor Tabs
Minuet In G From Thema Varie Op 3 Tabs
Minueto Tabs
Moderato In C Tabs
Opus 35 No17 In D Tabs
Opus 6 No 11 Etude 17 Tabs
Study In G Tabs
Waltz Tabs
Waltz Of The Robins Tabs


Song lyrics



↑ Back to top | Tablatures and chords are parodies/interpretations of the original songs. You may use it for private study, scholarship, research or language learning purposes only
© 2014 AZChords.com Contact us | Privacy policy | DMCA | Add/correct tabs | Request tabs | Top 50 tabs