» » »

Ferdinando Carulli, Andantino Tabs (ver.1)

Artists:  A B C D E F G H I J K L M N O P Q R S T U V W X Y Z # 

Andantino Tabs (ver.1)

Ferdinando Carulli Tabs
 Rating:
4/5 (4 votes)
Andantino lessons Tabs too difficult? Try these video lessons and learn fast
                ----------------------------------------------------------------------------

                        Andantino - Fernando Carulli       
----------------------------------------------------------------------------


Tuning:Standard
4/4
                                
e|-------------------------------0-2---3----3----2----2----0----0----------|
B|-0---0---1---1---3----3----3----------------------------------------3----|
G|---0---0---0---0---0----0--------------0----0----0----0------------------|
D|-------------------------------------2----2----0----0------0----0--------|
A|---------0---0---2----2----2-----------------------------3----3-----2----|
E|-3---3-------------------------------------------------------------------|

e|-------------0----------------3-2---0------------------------------------|
B|-1---1---1-----3--0---0---0-------------3---1----0--0---1---2---3--------|
G|-2---2---2--------0---0---0-----------------------------------------2----|
D|---0---0---0--------0---0---0-----------------------0---------------0----|
A|----------------------------------3---2---0------------------------------|
E|-----------------------------------------------3-------------------------|


e|-----3--------3------3----------------------3-------3-------3------------|
B|---1---1----1---1--------3-----0----3-----1---1---1---1---------3----0---|
G|-------------------0---0----0-----0----------------------0----0----0-----|
D|-0--------0-----------------------------0-------0------------------------|
A|-------------------------------------------------------------------------|
E|-------------------------------------------------------------------------|


e|-----------0--------------------------3------------3--------0------------|
B|---3---------------------3---------1------------0--------------1-----0---|
G|-0------0-------------0-------------------------------------------2------|
D|---------------------------------------------------------------------0---|
A|------3-------3-----2-------2---0--------0---2-------2---3---------------|
E|-------------------------------------------------------------------------|

e|-------------------------------------------------------------------------|
B|-3--1--------------------------------------------------------------------|
G|-------2-----0-----------------------------------------------------------|
D|----0-----------0--------------------------------------------------------|
A|------------------2------------------------------------------------------|
E|-----------3----------3--------------------------------------------------|
            
Submit corrections

comments powered by Disqus
↑ Back to top | Ferdinando Carulli Tabs for Andantino. Lyrics for acoustic guitar and electric guitar. Tablatures and chords are parodies/interpretations of the original songs. You may use it for private study, scholarship, research or language learning purposes only